Войти:  Facebook Google Twitter Vk Yandex Mail.ru
PrimaNota.ru - самый крупный в мире бесплатный архив песенных текстов, аккордов, табулатур и нот


Dwarves - Johnny Glue - текст песни, бас-таба, видео

Печатать
Просмотров: 140
Лучшая metal-группа Петербурга

Johnny Glue

  • аккорды и текст

Verse ("Johnny Glue, Johnny Glue...")
G--------------------------------------------------------|
D--------------------------------------------------------|
A-3--5----------3--5----------3--5----------3--5---------|
E------5-5-5-5-------5-5-5-5-------5-5-5-5-------5-5-5-5-|

Chorus ("Where You Gonna Go, Whatcha Gonna Do?")
G------------------------------------------------------|
D------------------------------------------------------|
A-3-3-3-3-------3-3-3-3-------3-3-3-3--5-5-5-5-5-5-5-5-|
E----------5-------------5-----------------------------|

Verse ("Johnny Glue, Johnny Glue...")
G--------------------------------------------------------|
D--------------------------------------------------------|
A-3--5----------3--5----------3--5----------3--5---------|
E------5-5-5-5-------5-5-5-5-------5-5-5-5-------5-5-5-5-|

Chorus ("Where You Gonna Go, Whatcha Gonna Do?")
G------------------------------------------------------|
D------------------------------------------------------|
A-3-3-3-3-------3-3-3-3-------3-3-3-3--5-5-5-5-5-5-5-5-|
E----------5-------------5-----------------------------|

Bridge                                                 x2  ("Kiki, Get that fucking needle outta your eye")
G--------------------------------------------------------|-----------------------|
D--------------------------------------------------------|-----------------------|
A-3--5----------3--5----------3--5----------3--5---------|-(0)-------------------|
E------5-5-5-5-------5-5-5-5-------5-5-5-5-------5-5-5-5-|-----------------------|

Outro ("Johnny Glue, Johnny Glue, Yeah yeah yeah...")  x4
G--------------------------------------------------------|
D--------------------------------------------------------|
A-5--7----------5--7----------5--7----------5--7---------|
E------7-7-7-7-------7-7-7-7-------7-7-7-7-------7-7-7-7-|
Добавлено: 17.10.2017
Другие материалы по этой песне:
  • Аккорды и текст

Страница создана 08.05.2012
https://primanota.ru/dwarves/johnny-glue-chords.htm

Привет, гитарист!

Тебе подарок от сайта PrimaNota.ru

Забрать подарок
ВАМ ПОДАРКИ ОТ ПРОЕКТА
"ГИТАРНАЯ РЕВОЛЮЦИЯ"