Войти:  Facebook Google Twitter Vk Yandex Mail.ru
PrimaNota.ru - самый крупный в мире бесплатный архив песенных текстов, аккордов, табулатур и нот


Dwarves - Irresistible - таба, бас-таба, видео

Печатать
Просмотров: 78
Лучшая metal-группа Петербурга

Irresistible

  • аккорды и текст

Verse 
E|--------------------------------------------------------------------|
B|--------------------------------------------------------------------|
G|---2-5--7-7-7-7-7-7--2-5--7-7-7-7-7--2-5--7-7-7-7-7-7-7-7-2-2-2-2-2-|
D|-5-2-5--7-7-7-7-7-7--2-5--7-7-7-7-7--2-5--7-7-7-7-7-7-7-7-2-2-2-2-2-|
A|-5-0-3--5-5-5-5-5-5--0-3--5-5-5-5-5--0-3--5-5-5-5-5-5-5-5-0-0-0-0-0-|
E|-3------------------------------------------------------------------|

E|--------------------------------------------------------------------|
B|--------------------------------------------------------------------|
G|---2-5--7-7-7-7-7-7--2-5--7-7-7-7-7--2-5--7-7-7-7-7-7-7-7-2-2-2-2-2-|
D|-5-2-5--7-7-7-7-7-7--2-5--7-7-7-7-7--2-5--7-7-7-7-7-7-7-7-2-2-2-2-2-|
A|-5-0-3--5-5-5-5-5-5--0-3--5-5-5-5-5--0-3--5-5-5-5-5-5-5-5-0-0-0-0-0-|
E|-3------------------------------------------------------------------|

Chorus  ("Irresistible, Irresistible...")
E|------------------------------------------------------------------------|------------------------|
B|------------------------------------------------------------------------|------------------------|
G|---2-5--7-7-7-7-7----2-5--7-7-7-7-7----2-5--7-7-7-7-7----2-5--2-2-2-2-2-|------------------------|
D|-5-2-5--7-7-7-7-7--5-2-5--7-7-7-7-7--5-2-5--7-7-7-7-7--5-2-5--2-2-2-2-2-|------------------------|
A|-5-0-3--5-5-5-5-5--5-0-3--5-5-5-5-5--5-0-3--5-5-5-5-5--5-0-3--0-0-0-0-0-|-------Drum-Fill--------|
E|-3-----------------3-----------------3-----------------3----------------|------------------------|

Verse 
E|--------------------------------------------------------------------|
B|--------------------------------------------------------------------|
G|---2-5--7-7-7-7-7-7--2-5--7-7-7-7-7--2-5--7-7-7-7-7-7-7-7-2-2-2-2-2-|
D|-5-2-5--7-7-7-7-7-7--2-5--7-7-7-7-7--2-5--7-7-7-7-7-7-7-7-2-2-2-2-2-|
A|-5-0-3--5-5-5-5-5-5--0-3--5-5-5-5-5--0-3--5-5-5-5-5-5-5-5-0-0-0-0-0-|
E|-3------------------------------------------------------------------|

Chorus  ("Irresistible, Egotistical...")
E|------------------------------------------------------------------------|
B|------------------------------------------------------------------------|
G|---2-5--7-7-7-7-7----2-5--7-7-7-7-7----2-5--7-7-7-7-7----2-5--2-2-2-2-2-|
D|-5-2-5--7-7-7-7-7--5-2-5--7-7-7-7-7--5-2-5--7-7-7-7-7--5-2-5--2-2-2-2-2-|
A|-5-0-3--5-5-5-5-5--5-0-3--5-5-5-5-5--5-0-3--5-5-5-5-5--5-0-3--0-0-0-0-0-|
E|-3-----------------3-----------------3-----------------3----------------|

Outro ("I'm a once in a lifetime...")
E|--------------------------------------------------------------------|
B|--------------------------------------------------------------------|
G|---5--2-2-2-2-2-2----5--2-2-2-2-2-2----5--2-2-2-2-2-2----5--7-------|
D|-5-5--2-2-2-2-2-2--5-5--2-2-2-2-2-2--5-5--2-2-2-2-2-2--5-5--7-------|
A|-5-3--0-0-0-0-0-0--5-3--0-0-0-0-0-0--5-3--0-0-0-0-0-0--5-3--5-------|
E|-3-----------------3-----------------3-----------------3------------|
Добавлено: 17.10.2017
Другие композиции этого автора:
Другие материалы по этой песне:
  • Аккорды и текст

Страница создана 17.10.2017
https://primanota.ru/dwarves/irresistible-chords.htm

Привет, гитарист!

Тебе подарок от сайта PrimaNota.ru

Забрать подарок
ВАМ ПОДАРКИ ОТ ПРОЕКТА
"ГИТАРНАЯ РЕВОЛЮЦИЯ"