» 
 » 
Ловушка



Песни дворовые - Ловушка - табы

Чайковский в рок-аранжировке! Очень необычно, послушай!
 pm--------|       pm--        ^v                ^v   
e|-----------------|-----------------|-----------------|---------------|
b|-----------------|-----------------|-----------------|---------------|
g|-----------------|-----------------|-----------------|---------------|
D|-----------7-7/9-|-----------7-7/9-|-----------7-7/9-|-97-----------|
A|-----------5-5/7-|-----------5-5/7-|-----------5-5/7-|-75----97----|
E|-0-0-0-0-0-------|-0-0-0-0-0-------|-0-0-0-0-0-------|------0-75----|

e|--------------------------------------|
b|--------------------------------------|
g|--------------------------------------|
D|-------------------------97----------|
A|-------------------------75---97----|
E|-0-0-0-0-0-0-0-0-0-0-****----0-75----|

e|--------------------------------------|
b|--------------------------------------|
g|--------------------------------------|
D|--7/9-9-9-9--9------------------------|
A|--5/7-7-7-7--7-9-9-97-7--------------|
E|---------------7-7-75-5--------------|

Вырой 50 метров вперёд.
Вырой 100 метров вниз.
Вырой 500 метров вперёд.
Вырой 2000 метров вниз.
А теперь попробуй выберись.



   

Песни дворовые - Ловушка - ноты

(включить)
Другие материалы по этой песне:
  • Аккорды, текст

https://primanota.ru/dvorovye-pesni/lovushka-chords.htm