Войти:  Facebook Google Twitter Vk Yandex Mail.ru
PrimaNota.ru - самый крупный в мире бесплатный архив песенных текстов, аккордов, табулатур и нот


Ducky Boys - For The Underdogs - бас-таба, видео

Печатать
Просмотров: 166
Лучшая metal-группа Петербурга

For The Underdogs

  • аккорды и текст

The Ducky Boys
Three Chords and the Truth
For the Underdogs


Intro:
-------------------------------------|
-------------------------------------|
-----------4-4-4-4-4-4-3-3-----------| 2
---4-4-4-4-----------------4-4-4-4---|

Chorus:
---------------------|
---------------------|
-----------4-4-6-6---| x3
---4-4-4-4-----------|


---------------------|
---------------------|
-------6-6-----------| x1
---4-4-----4-4-4-4---|

Verse:
-------------------------------------|
-------------------------------------|
-----------6-6-6-6-4-4-6-6-----------|x2
---4-4-4-4-----------------4-4-4-4---|


Bridge:
-------------------------------------|
-------------------------------------|
-----------6-6-6-6-4-4-4-4-6-4-3-----| x1
---4-4-4-4-----------------------6---|
Добавлено: 30.06.2012
Другие материалы по этой песне:
  • Аккорды и текст

Страница создана 30.06.2012
https://primanota.ru/ducky-boys/for-the-underdogs-chords.htm

Привет, гитарист!

Тебе подарок от сайта PrimaNota.ru

Забрать подарок
ВАМ ПОДАРКИ ОТ ПРОЕКТА
"ГИТАРНАЯ РЕВОЛЮЦИЯ"