Войти:  Facebook Google Twitter Vk Yandex Mail.ru
PrimaNota.ru - самый крупный в мире бесплатный архив песенных текстов, аккордов, табулатур и нот


Ducky Boys - Alone Tonight - бас-таба

Печатать
Лучшая metal-группа Петербурга

Alone Tonight

  • аккорды, текст

The Ducky Boys
Three Chords and the Truth
Alone Tonight

Intro/Verse:
-------------------------------------|
-------------------------------------|
---4-4-4-4---------1-1-1-1-----------| x9
-----------4-4-4-4---------2-2-2-2---|

Pre-Chorus:
---------------------|
---------------------|
---------------------|
---2-2-2-2-4-4-4-4---|

Chorus:
---------------------------------------------------------------------|
---------------------------------------------------------------------|
---4-4-4-4---------1-1-1-1---------4-4-4-4---------1-1---------------|
-----------4-4-4-4---------2-2-2-2---------4-4-4-4-----4-4-2-2-2-2---|   
https://primanota.ru/ducky-boys/alone-tonight-chords.htm

Привет, гитарист!

Тебе подарок от сайта PrimaNota.ru

Забрать подарок
ВАМ ПОДАРКИ ОТ ПРОЕКТА
"ГИТАРНАЯ РЕВОЛЮЦИЯ"