Войти:  Facebook Google Twitter Vk Yandex Mail.ru
PrimaNota.ru - самый крупный в мире бесплатный архив песенных текстов, аккордов, табулатур и нот


Дороги Меняют Цвет (ДМЦ) - Маскарад - аккорды и текст, видео

Печатать
Просмотров: 957
Лучшая metal-группа Петербурга

Маскарад

  • аккорды и текст
Тональность: 
0
Проще! Аппликатуры

Маскарад
Дороги Меняют Цвет (ДМЦ)
Маскарад
Am Am E Fm/5-
1-------------------------------------------------------------------
2-----------1--------------1----------------0---------------0-----
3--------2--------------2---------------1---------------1---------
4-----2-------------2--------------2----------------3-------------
5--0-------------0-------------2----------------2-----------------
6-------------------------------------------------------------------

Fm/5- :
1 |-------|--------|------|
2 |-------|--------|------|
3 |-------|---х---|-------|
4 |-------|--------|---х--|-
5 |---х---|-------|-------|--
6 |-------|--------|------|--
Добавлено: 26.12.2013
Другие материалы по этой песне:
  • Аккорды и текст

Страница создана 26.12.2013
https://primanota.ru/dorogi-menyayut-cvet-dmc/maskarad-chords.htm

Привет, гитарист!

Тебе подарок от сайта PrimaNota.ru

Забрать подарок
ВАМ ПОДАРКИ ОТ ПРОЕКТА
"ГИТАРНАЯ РЕВОЛЮЦИЯ"