Войти:  Facebook Google Twitter Vk Yandex Mail.ru
PrimaNota.ru - самый крупный в мире бесплатный архив песенных текстов, аккордов, табулатур и нот


Дороги Меняют Цвет (ДМЦ) - Аннушка - аккорды и текст, видео

Печатать
Лучшая metal-группа Петербурга

Аннушка

  • аккорды и текст
Тональность: 
0
Проще! Аппликатуры

Аннушка
Дороги Меняют Цвет (ДМЦ)
Am..................... F...............
То, чего не было, назовут сказкой.
С очень простым сюжетом, но непростой развязкой.
То, чего не будет, не подлежит огласке.
Аня меня убьёт - Аня прольёт масло.
 
То, чего не было, будет когда-нибудь.
В маленьком городе кто-то не сможет уснуть,
Выйдет на улицу, врача будет ждать. Напрасно..
У маленькой Аннушки хватит на всех масла.

Может, когда-нибудь, то, что давным-давно
Билось за пазухой, разобьёт окно.
И то, чего не было, обретёт краски,
Но Аннушка, как всегда, дура, прольёт масло.


Am
----------------------0------------
--------------1--------------------
----------2------2-------2---------
------2------------------------2----
--0---------------------------------
-------------------------------------

F
----------------------1-------------
--------------1---------------------
---------2--------2---------2--------
-----3----------------------------3--
--------------------------------------
--1-----------------------------------   
Добавлено: 15.03.2014
Другие материалы по этой песне:
  • Аккорды и текст

Страница создана 15.03.2014
https://primanota.ru/dorogi-menyayut-cvet-dmc/annushka-chords.htm

Привет, гитарист!

Тебе подарок от сайта PrimaNota.ru

Забрать подарок
ВАМ ПОДАРКИ ОТ ПРОЕКТА
"ГИТАРНАЯ РЕВОЛЮЦИЯ"