Войти:  Facebook Google Twitter Vk Yandex Mail.ru
PrimaNota.ru - самый крупный в мире бесплатный архив песенных текстов, аккордов, табулатур и нот


Dopethrone - Chameleon Witch - таба, видео

Печатать
Просмотров: 94
Лучшая metal-группа Петербурга

Chameleon Witch

  • аккорды и текст

[Intro]

e|---------------------------------------------------------------------------|
B|---------------------------------------------------------------------------|
G|---------------------------------------------------------------------------|
D|---------------------------------------------------------------------5-----|
A|---------5-h-7-7---------------------------5-h-7-7------------5-h-7--------|
E|-0-0--0-----------0-0--0--5-h-6-3---0-0--0----------0-0--0-----------------|

e|---------------------------------------------------------------------------|
B|---------------------------------------------------------------------------|
G|---------------------------------------------------------------------------|
D|---------------------------------------------------------------------------|
A|---------5h7-7-------------------5/7--7-7--7-7/10-10-10-/13-13-------------|
E|-0-0--0---------0-0--0--5h6-3--0-3/5--5-5--5-5/8--8--8--/11-11-------------|


[Verse]

e|---------------------------------------------------------------------------|
B|---------------------------------------------------------------------------|
G|---------------------------------------------------------------------------|
D|---------7/9-9------------------------7/9-9-7/9-9------5-------------------|
A|---------5/7-7----------7/8-5---------5/7-7-5/7-7--5h7---------------------|
E|-0-0--0---------0-0--0--5/6-3--0-0--0--------------------------------------|
                                                                               x2
e|---------------------------------------------------------------------------| 
B|---------------------------------------------------------------------------|
G|---------------------------------------------------------------------------|
D|---------7/9-9-------------------------------------------------------------|
A|---------5/7-7---------7/8-5----5/7--7-7--7-7/10-10-10-/13-13--------------|
E|-0-0--0---------0-0--0-5/6-3--0-3/5--5-5--5-5/8--8--8--/11-11--------------|


[Chorus]

e|---------------------------------------------------------------------------|
B|---------------5-------------------------5-----5---------------------------|
G|------------------4-------------------------4------------------------------|
D|---------------------5-----------------------------------------------------|
A|-2-2--2-2------------------2-2--2-2----------------------------------------|
E|-0-0--0-0------------------0-0--0-0----------------------------------------|
                                                                               x2
e|---------------------------------------------------------------------------|
B|--------------5------------------------------------------------------------|
G|-----------------4---------------------------------------------------------|
D|--------------------5------------------------------------------------------|
A|-2-2--2-2-----------------5/7--7-7--7-7-/-10-10-10-/-13-13-----------------|
E|-0-0--0-0---------------0-3/5--5-5--5-5-/-8--8--8--/-11-11-----------------|


[Verse]

e|---------------------------------------------------------------------------|
B|---------------------------------------------------------------------------|
G|---------------------------------------------------------------------------|
D|---------7-/-9-9---------------------7/9-9-7-/-9-9---------5---------------|
A|---------5-/-7-7--------7/8-5--------5/7-7-5-/-7-7--5-h-7------------------|
E|-0-0--0---------0-0--0--5/6-3--0-0--0--------------------------------------|
                                                                               x2
e|---------------------------------------------------------------------------| 
B|---------------------------------------------------------------------------|
G|---------------------------------------------------------------------------|
D|---------7/9-9-------------------------------------------------------------|
A|---------5/7-7---------7/8-5----5/7--7-7--7-7/10-10-10-/13-13--------------|
E|-0-0--0---------0-0--0-5/6-3--0-3/5--5-5--5-5/8--8--8--/11-11--------------|


[Chorus]

e|---------------------------------------------------------------------------|
B|---------------5-------------------------5-----5---------------------------|
G|------------------4-------------------------4------------------------------|
D|---------------------5-----------------------------------------------------|
A|-2-2--2-2------------------2-2--2-2----------------------------------------|
E|-0-0--0-0------------------0-0--0-0----------------------------------------|
                                                                               x2
e|---------------------------------------------------------------------------|
B|--------------5------------------------------------------------------------|
G|-----------------4---------------------------------------------------------|
D|--------------------5------------------------------------------------------|
A|-2-2--2-2-----------------5/7--7-7--7-7/10-10-10-/13-13--------------------|
E|-0-0--0-0---------------0-3/5--5-5--5-5/8--8--8--/11-11--------------------|


[Bridge]

e|---------------------------------------------------------------------------|
B|---------------------------------------------------------------------------|
G|---------------------------------------------------------------------------|
D|-8-8-8-9-------------------------------------------------------------------|
A|-6-6-6-7-------------------------------------------------------------------|
E|-----------0-0--0--0-0-0-/8-8-8-8\5-5-5--5-5-5--3-3-3-3p0------------------|

e|---------------------------------------------------------------------------|
B|---------------------------------------------------------------------------|
G|---------------------------------------------------------------------------|
D|---------------------------------------------------------------------------|
A|---------------------------------------------------------------------------|
E|-0-0--0-0-0-/8-8-8-8\5-5-5--5-5-5------------------------------------------|

[Outro]

e|---------------------------------------------------------------------------|
B|---------------------------------------------------------------------------|
G|---------------------------------------------------------------------------|
D|-8-8-8-9-------------------------------------------------------------------|
A|-6-6-6-7---2-2--2--2-2-2-/10-10-10-10-\7-7-7--7-7-7--5-5-5-----------------|
E|-----------0-0--0--0-0-0-/8--8--8--8--\5-5-5--5-5-5--3-3-3-3p0-------------|
                                                                               x14
e|---------------------------------------------------------------------------|
B|---------------------------------------------------------------------------|
G|---------------------------------------------------------------------------|
D|---------------------------------------------------------------------------|
A|-2-2--2-2-2-/10-10-10-10-\7-7-7--7-7-7-------------------------------------|
E|-0-0--0-0-0-/8--8--8--8--\5-5-5--5-5-5-------------------------------------|

Fades out.

Please Rate and Comment!


************************************

| h   Hammer-on
| p   Pull-off
| /   Slide up
| \   Slide down

************************************
Добавлено: 21.05.2018
Другие материалы по этой песне:
  • Аккорды и текст

Страница создана 21.05.2018
https://primanota.ru/dopethrone/chameleon-witch-chords.htm

Привет, гитарист!

Тебе подарок от сайта PrimaNota.ru

Забрать подарок
ВАМ ПОДАРКИ ОТ ПРОЕКТА
"ГИТАРНАЯ РЕВОЛЮЦИЯ"