Войти:  Facebook Google Twitter Vk Yandex Mail.ru
PrimaNota.ru - самый крупный в мире бесплатный архив песенных текстов, аккордов, табулатур и нот


Dokken - Young Girls - текст песни, таба, видео

Печатать
Просмотров: 169
Лучшая metal-группа Петербурга

Young Girls

  • аккорды и текст

[Intro]
E|-----------------|-----------------|-----------------|-----------------|
B|-----------------|-----------------|-----------------|-----------------|
G|-----9-----9-----|-7-----7-----7-5-|-----9-----9-----|-7-----7-----7-5-|
D|-----7-----7-----|-5-----5-----5-5-|-----7-----7-----|-5-----5-----5-5-|
A|-0-0---0-0---0-0-|---0-0---0-0-----|-0-0---0-0---0-0-|---0-0---0-0-----|
E|-----------------|-----------------|-----------------|-----------------|

E|-----------------|-----------------|-----------------|-----------------|
B|-----------------|-----------------|-----------------|-----------------|
G|-----9-----9-----|-7-----7-----7-5-|-----9-----9-----|-7-----7-----7-5-|
D|-----7-----7-----|-5-----5-----5-5-|-----7-----7-----|-5-----5-----5-5-|
A|-0-0---0-0---0-0-|---0-0---0-0-----|-0-0---0-0---0-0-|---0-0---0-0-----|
E|-----------------|-----------------|-----------------|-----------------|
Добавлено: 15.12.2017
Другие материалы по этой песне:
  • Аккорды и текст

Страница создана 04.04.2012
https://primanota.ru/dokken/young-girls-chords.htm

Привет, гитарист!

Тебе подарок от сайта PrimaNota.ru

Забрать подарок
ВАМ ПОДАРКИ ОТ ПРОЕКТА
"ГИТАРНАЯ РЕВОЛЮЦИЯ"