Войти:  Facebook Google Twitter Vk Yandex Mail.ru
PrimaNota.ru - самый крупный в мире бесплатный архив песенных текстов, аккордов, табулатур и нот


Do Make Say Think - When Day Chokes The Night - табы, бас-таба

Печатать
Лучшая metal-группа Петербурга

When Day Chokes The Night

  • аккорды, текст

-------------------------------------------------------------------------------
                             When Day Chokes the Night - Do Make Say Think
-------------------------------------------------------------------------------
Tabbed by: minilogo37
E-mail: minilogo37@gmail.com

Tuning:

e|----------------------------------------------------------------------------|
B|----------------------0-----------------------------------------------------|
G|----------------------0-----------------------------------------------------|
D|-------2p0--------2---2-----------------------------------------------------|
A|-------------2h3------3---2-------------------------------------------------|
E|---0----------------------0-------------------------------------------------|

repeat ad nauseam


************************************
 
| h   hammer-on
| p   pull-off 

************************************   
https://primanota.ru/do-make-say-think/when-day-chokes-the-night-chords.htm

Привет, гитарист!

Тебе подарок от сайта PrimaNota.ru

Забрать подарок
ВАМ ПОДАРКИ ОТ ПРОЕКТА
"ГИТАРНАЯ РЕВОЛЮЦИЯ"