Войти:  Facebook Google Twitter Vk Yandex Mail.ru
PrimaNota.ru - самый крупный в мире бесплатный архив песенных текстов, аккордов, табулатур и нот


Disturbed - Never Wrong - табы

Нотный режим - новая уникальная возможность на нашем сайте!
  • аккорды, текст
[Intro]
"You're never ever wrong, no you're never wrong, (never wrong)"
C#|--------------------|-----------------------|--------------------|---------------------|
G#|--------------------|-----------------------|--------------------|---------------------|
E |--------------------|-----------------------|--------------------|---------------------|
B |--------------------|-----------------------|--------------------|---------------1-1-1-| x2
F#|---------5-----(6)--|---------8-----8-----3-|---------5-----(6)--|---------8-----1-1-1-|
B |-0-0-0-0---0-0------|-0-0-0-0---0-0---0-0---|-0-0-0-0---0-0------|-0-0-0-0---0-0-1-1-1-|
    * * * *   * *        * * * *   * *   * *     * * * *   * *        * * * *   * *   

[Verse]
"You're never ever wrong, always something more to say"
C#|--------------------|-----------------------|--------------------|---------------------|
G#|--------------------|-----------------------|--------------------|---------------------|
E |--------------------|-----------------------|--------------------|---------------------|
B |--------------------|-----------------------|--------------------|---------------1-1-1-| x2
F#|---------5-----(6)--|---------8-----8-----3-|---------5-----(6)--|---------8-----1-1-1-|
B |-0-0-0-0---0-0------|-0-0-0-0---0-0---0-0---|-0-0-0-0---0-0------|-0-0-0-0---0-0-1-1-1-|
    * * * *   * *        * * * *   * *   * *     * * * *   * *        * * * *   * *   

"Feel the anger coming"
C#|--------------------|-----------------------|--------------------|---------------|
G#|--------------------|-----------------------|--------------------|---------------|
E |--------------------|-----------------------|--------------------|---------------|
B |--------------------|-----------------------|--------------------|---------------| 
F#|---------5-----(6)--|---------8-----8-----3-|---------5-----(6)--|---------8-----|
B |-0-0-0-0---0-0------|-0-0-0-0---0-0---0-0---|-0-0-0-0---0-0------|-0-0-0-0---0-0-|
    * * * *   * *        * * * *   * *   * *     * * * *   * *        * * * *   * *

[Chorus]
"How could you let it end up this way?"
C#|-----------------|-----------------|-----------------|-------------|---------|
G#|-----------------|-----------------|-----------------|-------------|---------|
E |-----------------|-----------------|-----------------|-------------|---------|
B |-5-5-5-5-5-5-5-5-|-7-7-7-7-7-7-7-7-|-8-8-8-8-8-8-8-8-|-10-10-10-10-|-8-8-8-8-|
F#|-5-5-5-5-5-5-5-5-|-7-7-7-7-7-7-7-7-|-8-8-8-8-8-8-8-8-|-8--8--8--8--|-6-6-6-6-|
B |-5-5-5-5-5-5-5-5-|-7-7-7-7-7-7-7-7-|-8-8-8-8-8-8-8-8-|-------------|---------|

C#|-----------------|-----------------|-------------------------|-------------------------|-------------|
G#|-----------------|-----------------|-------------------------|-------------------------|-------------|
E |-----------------|-----------------|-------------------------|-------------------------|-------------|
B |-5-5-5-5-5-5-5-5-|-7-7-7-7-7-7-7-7-|-8-8-8-8-8-8-8-8-8-8-8-8-|-10-10-10-10-10-10-10-10-|-8-8-8-8-8-8-|
F#|-5-5-5-5-5-5-5-5-|-7-7-7-7-7-7-7-7-|-8-8-8-8-8-8-8-8-8-8-8-8-|-8--8--8--8--8--8--8--8--|-6-6-6-6-6-6-|
B |-5-5-5-5-5-5-5-5-|-7-7-7-7-7-7-7-7-|-8-8-8-8-8-8-8-8-8-8-8-8-|-------------------------|-------------|
                                        * *   * *   * *   * *

C#|----------|----------|---------|--------------|
G#|----------|----------|---------|--------------|
E |----------|----------|---------|--------------|
B |----------|----------|---------|---------5h8--| x2
F#|------(3)-|------5h6-|-----(3)-|---5h6--------|
B |-0--0-----|-0--0-----|-0--0----|-0-----0------|
    *  *       *  *       *  *      *     *

[Verse 2]
"You're never ever wrong and you never will believe"
C#|--------------------|-----------------------|--------------------|---------------------|
G#|--------------------|-----------------------|--------------------|---------------------|
E |--------------------|-----------------------|--------------------|---------------------|
B |--------------------|-----------------------|--------------------|---------------1-1-1-| x2
F#|---------5-----(6)--|---------8-----8-----3-|---------5-----(6)--|---------8-----1-1-1-|
B |-0-0-0-0---0-0------|-0-0-0-0---0-0---0-0---|-0-0-0-0---0-0------|-0-0-0-0---0-0-1-1-1-|
    * * * *   * *        * * * *   * *   * *     * * * *   * *        * * * *   * *   

"Feel the anger coming"
C#|--------------------|-----------------------|--------------------|---------------|
G#|--------------------|-----------------------|--------------------|---------------|
E |--------------------|-----------------------|--------------------|---------------|
B |--------------------|-----------------------|--------------------|---------------| 
F#|---------5-----(6)--|---------8-----8-----3-|---------5-----(6)--|---------8-----|
B |-0-0-0-0---0-0------|-0-0-0-0---0-0---0-0---|-0-0-0-0---0-0------|-0-0-0-0---0-0-|
    * * * *   * *        * * * *   * *   * *     * * * *   * *        * * * *   * *  

[Chorus 2]
"How could you let it end up this way?"
C#|-----------------|-----------------|-----------------|-------------|---------|
G#|-----------------|-----------------|-----------------|-------------|---------|
E |-----------------|-----------------|-----------------|-------------|---------|
B |-5-5-5-5-5-5-5-5-|-7-7-7-7-7-7-7-7-|-8-8-8-8-8-8-8-8-|-10-10-10-10-|-8-8-8-8-|
F#|-5-5-5-5-5-5-5-5-|-7-7-7-7-7-7-7-7-|-8-8-8-8-8-8-8-8-|-8--8--8--8--|-6-6-6-6-|
B |-5-5-5-5-5-5-5-5-|-7-7-7-7-7-7-7-7-|-8-8-8-8-8-8-8-8-|-------------|---------|

C#|-----------------|-----------------|-------------------------|-------------------------|-------------|
G#|-----------------|-----------------|-------------------------|-------------------------|-------------|
E |-----------------|-----------------|-------------------------|-------------------------|-------------|
B |-5-5-5-5-5-5-5-5-|-7-7-7-7-7-7-7-7-|-8-8-8-8-8-8-8-8-8-8-8-8-|-10-10-10-10-10-10-10-10-|-8-8-8-8-8-8-|
F#|-5-5-5-5-5-5-5-5-|-7-7-7-7-7-7-7-7-|-8-8-8-8-8-8-8-8-8-8-8-8-|-8--8--8--8--8--8--8--8--|-6-6-6-6-6-6-|
B |-5-5-5-5-5-5-5-5-|-7-7-7-7-7-7-7-7-|-8-8-8-8-8-8-8-8-8-8-8-8-|-------------------------|-------------|
                                        * *   * *   * *   * *

C#|----------|----------|---------|--------------|
G#|----------|----------|---------|--------------|
E |----------|----------|---------|--------------|
B |----------|----------|---------|---------5h8--| x6
F#|------(3)-|------5h6-|-----(3)-|---5h6--------|
B |-0--0-----|-0--0-----|-0--0----|-0-----0------|
    *  *       *  *       *  *      *     *
This part is played under the solo. ^

[Bridge]
"If you shut your mouth, then we might just make it"
C#|-------------------------|-----------------------------|-------------------------|----------------------|
G#|-------------------------|-----------------------------|-------------------------|----------------------|
E |-------------------------|-----------------------------|-------------------------|----------------------|
B |-6---------6---------8-5-|-6---------6-----------------|-6---------6---------8-5-|-6---------6----------|
F#|-6---------6---------8-5-|-6---------6-----------------|-6---------6---------8-5-|-6---------6----------|x2
B |-6-0-0-0-0-6-0-0-0-0-8-5-|-6-0-0-0-0-6-0-0-0-0-0-0-0-0-|-6-0-0-0-0-6-0-0-0-0-8-5-|-6-0-0-0-0-6-/x-x-x-x-|
      * * * *   * * * *         * * * *   * * * * * * * *     * * * *   * * * *         * * * * 

[Chorus 2]
"How could you let it end up this way?"
C#|------|-----------------|-----------------|------|
G#|------|-----------------|-----------------|------|
E |------|-----------------|-----------------|------|
B |-5----|-7-7-7-7-7-7-7-7-|-8-8-8-8-8-8-8-8-|-10---|
F#|-5----|-7-7-7-7-7-7-7-7-|-8-8-8-8-8-8-8-8-|-8----|
B |-5----|-7-7-7-7-7-7-7-7-|-8-8-8-8-8-8-8-8-|------|
"I'm Not wiling to deal with someone"
C#|-----------------|-----------------|-------------------------|-------------------------|-------------|
G#|-----------------|-----------------|-------------------------|-------------------------|-------------|
E |-----------------|-----------------|-------------------------|-------------------------|-------------|
B |-5-5-5-5-5-5-5-5-|-7-7-7-7-7-7-7-7-|-8-8-8-8-8-8-8-8-8-8-8-8-|-10-10-10-10-10-10-10-10-|-8-8-8-8-8-8-|
F#|-5-5-5-5-5-5-5-5-|-7-7-7-7-7-7-7-7-|-8-8-8-8-8-8-8-8-8-8-8-8-|-8--8--8--8--8--8--8--8--|-6-6-6-6-6-6-|
B |-5-5-5-5-5-5-5-5-|-7-7-7-7-7-7-7-7-|-8-8-8-8-8-8-8-8-8-8-8-8-|-------------------------|-------------|
                                        * *   * *   * *   * *

C#|-----------------|-----------------|-----------------|-------------|---------|
G#|-----------------|-----------------|-----------------|-------------|---------|
E |-----------------|-----------------|-----------------|-------------|---------|
B |-5-5-5-5-5-5-5-5-|-7-7-7-7-7-7-7-7-|-8-8-8-8-8-8-8-8-|-10-10-10-10-|-8-8-8-8-|
F#|-5-5-5-5-5-5-5-5-|-7-7-7-7-7-7-7-7-|-8-8-8-8-8-8-8-8-|-8--8--8--8--|-6-6-6-6-|
B |-5-5-5-5-5-5-5-5-|-7-7-7-7-7-7-7-7-|-8-8-8-8-8-8-8-8-|-------------|---------|

C#|-----------------|-----------------|-------------------------|-------------------------|-------------|
G#|-----------------|-----------------|-------------------------|-------------------------|-------------|
E |-----------------|-----------------|-------------------------|-------------------------|-------------|
B |-5-5-5-5-5-5-5-5-|-7-7-7-7-7-7-7-7-|-8-8-8-8-8-8-8-8-8-8-8-8-|-10-10-10-10-10-10-10-10-|-8-8-8-8-8-8-|
F#|-5-5-5-5-5-5-5-5-|-7-7-7-7-7-7-7-7-|-8-8-8-8-8-8-8-8-8-8-8-8-|-8--8--8--8--8--8--8--8--|-6-6-6-6-6-6-|
B |-5-5-5-5-5-5-5-5-|-7-7-7-7-7-7-7-7-|-8-8-8-8-8-8-8-8-8-8-8-8-|-------------------------|-------------|
                                        * *   * *   * *   * *

[Outro]
"You're never ever wrong, no you're never wrong (never wrong)"
C#|--------------------|-----------------------|--------------------|---------------------|
G#|--------------------|-----------------------|--------------------|---------------------|
E |--------------------|-----------------------|--------------------|---------------------|
B |--------------------|-----------------------|--------------------|---------------1-1-1-| 
F#|---------5-----(6)--|---------8-----8-----3-|---------5-----(6)--|---------8-----1-1-1-|
B |-0-0-0-0---0-0------|-0-0-0-0---0-0---0-0---|-0-0-0-0---0-0------|-0-0-0-0---0-0-1-1-1-|
    * * * *   * *        * * * *   * *   * *     * * * *   * *        * * * *   * *   

THIS IS BASED OFF OF https://www.youtube.com/watch?v=htxVGvItDVo, 
BUT WITH MY INTERPRETATION FOR SOME PARTS.

************************************

| x   Dead note
| h   Hammer-on
| /   Slide up
| *   Palm-mute
|( )  Hold note

************************************   
>

Disturbed - Never Wrong - ноты

(включить)
Другие материалы по этой песне:
  • Аккорды, текст

https://primanota.ru/disturbed/never-wrong-chords.htm

Привет, гитарист!

Тебе подарок от сайта PrimaNota.ru

Забрать подарок
ВАМ ПОДАРКИ ОТ ПРОЕКТА
"ГИТАРНАЯ РЕВОЛЮЦИЯ"