Войти:  Facebook Google Twitter Vk Yandex Mail.ru
PrimaNota.ru - самый крупный в мире бесплатный архив песенных текстов, аккордов, табулатур и нот


Disturbed - Forsaken queen of the damned soundtrack - бас-таба

Печатать
ViraMusic 2019 в Петербурге 4 апреля 2019! Скидка 10%!

Forsaken queen of the damned soundtrack

  • аккорды, текст



Band:Disturbed
Album: Queen Of The Damned soundtrack
Song: Forsaken

5 string bass tuned down a whole step

A D G C F (low to high)


INTRO 2x

F------------------------------------------------
C------------------------------------------------
G------------------------------------------------
D-1-1--1111-1------------------------------------
A------------------------------------------------



BOTH VERSES

F------------------------------------------------
C------------------------------------------------
G------------------------------------------------
D-1-1--11-11--3-3-33-33--5-5-55-55--7-7-77-77----
A------------------------------------------------


F------------------------------------------------
C------------------------------------------------
G------------------------------------------------
D-1111111111111111/3333333333333333/5555555555555
A------------------------------------------------


Continued From Above
F------------------------------------------------
C------------------------------------------------
G------------------------------------------------
D-5/77777777777779999999999999-------------------
A------------------------------------------------




ALL CHORUSES

F------------------------------------------------
C------------------------------------------------
G------------------------------------------------
D------------------------------------------------
A-0-0000000-1-1111111-0-0000000-1-111111111------

Follow the Drums
The Bass in the chorus is wicked hard to hear so it was difficult finding the Chorus.


FILL 1 Before Second VERSE

F------------------------------------------------
C------------------------------------------------
G------------------------------------------------
D-1-1-11-11--1-1-11111--1-1-11-11----------------
A------------------------------------------------


VERSE again (Both parts)

Then CHORUS again

Then a small BRIDGE

Then CHORUS again until END.


ORDER Of PARTS

Intro 2x
Verse
Chorus
Fill
Verse
Chorus
Bridge (No Bass)
Chorus


   
https://primanota.ru/disturbed/forsaken-queen-of-the-damned-soundtrack-chords.htm

Привет, гитарист!

Тебе подарок от сайта PrimaNota.ru

Забрать подарок
ВАМ ПОДАРКИ ОТ ПРОЕКТА
"ГИТАРНАЯ РЕВОЛЮЦИЯ"