Войти:  Facebook Google Twitter Vk Yandex Mail.ru
PrimaNota.ru - самый крупный в мире бесплатный архив песенных текстов, аккордов, табулатур и нот


Disney - I See The Light - табы

Печатать
Лучшая metal-группа Петербурга

I See The Light

  • аккорды, текст

-------------------------------------------------------------------------------
                           I See the Light - From "Tangled"
-------------------------------------------------------------------------------
Tabbed by: Marie Flynn


Tuning: Standard (EADGBe)

e|--------------0-----------------------3-----0------------------------------|
B|-1------1-----------1-----1-----1------------------------------------------|
G|---------------------------------------------------------------------------|
D|---------------------------------------------------------------------------|
A|-----3-----3-----3-----3-----3-----3-----3---------------------------------|
E|---------------------------------------------------------------------------|

e|-------------0-----------------------3-----0-------------------------------|
B|-1-----1-----------1-----1-----1-------------------------------------------|
G|---------------------------------------------------------------------------|
D|---------------------------------------------------------------------------|
A|----3-----3-----3-----3-----3-----3-----3----------------------------------|
E|---------------------------------------------------------------------------|   
https://primanota.ru/disney/i-see-light-chords.htm

Привет, гитарист!

Тебе подарок от сайта PrimaNota.ru

Забрать подарок
ВАМ ПОДАРКИ ОТ ПРОЕКТА
"ГИТАРНАЯ РЕВОЛЮЦИЯ"