Войти:  Facebook Google Twitter Vk Yandex Mail.ru
PrimaNota.ru - самый крупный в мире бесплатный архив песенных текстов, аккордов, табулатур и нот


Difuntos Correa - Blackdancing - табы

Печатать
Лучшая metal-группа Петербурга

Blackdancing


Every day, oh black dancing calavera
Cruza la ciudad entera pa' llegar
Recuerda y se ríe de eso
Escucha su walkman y pide un deseo, deseo

Ella sólo es para mí
Me viene a visitar, quiero velocidad
[ch]B[/ch] ella
Dándome su amor la lleva
Rojo el caramelo
Que corre por sus venas

Pa adelante, atrás
De lao mi negra, flor
De su fiebre de amor
Desnuda una fiesta, (fiesta, fiesta, fiesta)

Every day, oh black dancing calavera
Hot al máximo, never estático
Adornando el encuentro de besos
Capricho sensual de su mágica lengua


El día es la noche sobre mí
Cada vez más, no deja de menear
A ella
Doy todo mi amor, ardiente
Las horas que se borran y yo sigo adelante

Pa adelante, atrás
De lao mi negra, flor
De su fiebre de amor
Desnuda una fiesta (fiesta, fiesta, fiesta)

SOLO 1 ----> 1:21

e------------------10/12-12-12-12-12-10-13-13-12-10--15b-13-15p13-----/
b-10p8--10p8-10p8-------------------------------------------------15--/
g---------------------------------------------------------------------/
d---------------------------------------------------------------------/
a---------------------------------------------------------------------/
E---------------------------------------------------------------------/


e-15b-13-15b-13-15p13-----20b-17-20-17-20-20b-------------------------/
b---------------------15----------------------------------------------/
g---------------------------------------------------------------------/
d---------------------------------------------------------------------/
a---------------------------------------------------------------------/
e---------------------------------------------------------------------/


e-----------------------13-13---15p-13-15p13---15b-13-15b-13-15p13----/
b-15b-13-15-13----13-15------15-------------15---------------------15-/
g--------------14-----------------------------------------------------/
d---------------------------------------------------------------------/
a---------------------------------------------------------------------/
e---------------------------------------------------------------------/


e-20b-17-20-17-20-20b-------------------------------------------------/
b---------------------------------------------------------------------/
g----------------------------------2-4--------------------------------/
d----------------------------2-4-5------------------------------------/
a----------------------2-3-5------------7-5-3-2-----------------------/
e---------------------------------------------------------------------/


Every day oh black dancing calavera
Tiene que volver a su tierra
El pulso del amor la lleva
Rojo el caramelo que corre por sus venas

Ella sólo es para mí
Me viene a visitar, yo la voy a dejar
A ella
Doy todo mi amor, amante
Las horas que se borran y yo sigo adelante

Pa adelante atrás
De lao mi negra, flor
De su fiebre de amor
Desnuda una fiesta (fiesta, fiesta, fiesta)

SOLO 2 -----> 2:26

e------------------10/12-12-12-12-12-10-13-13-12-10--15b-13-15p13-----/
b-10p8--10p8-10p8-------------------------------------------------15--/
g---------------------------------------------------------------------/
d---------------------------------------------------------------------/
a---------------------------------------------------------------------/
E---------------------------------------------------------------------/


e-15b-13-15b-13-15p13-----20b-17-20-17-20-20b-------------------------/
b---------------------15----------------------------------------------/
g---------------------------------------------------------------------/
d---------------------------------------------------------------------/
a---------------------------------------------------------------------/
e---------------------------------------------------------------------/

e---------------------13-13---15p-13-15p13----20b-17-15p-13-15p13-----/
b-15b-13-15-13--13-15------15-------------15----------------------15--/
g-------------15------------------------------------------------------/
d---------------------------------------------------------------------/
a---------------------------------------------------------------------/
e---------------------------------------------------------------------/

e-13---13--20b-17-20-17-20-20b----------------------------------------/
b---15----------------------------------------------------------------/
g-------------------------------------------2-4-----------------------/
d-------------------------------------2-4-5---------------------------/
a-------------------------------2-3-5------------7-5-3-2--------------/
e---------------------------------------------------------------------/


Cualquier cosa Carlosk8@   
https://primanota.ru/difuntos-correa/blackdancing-chords.htm

Привет, гитарист!

Тебе подарок от сайта PrimaNota.ru

Забрать подарок
ВАМ ПОДАРКИ ОТ ПРОЕКТА
"ГИТАРНАЯ РЕВОЛЮЦИЯ"