Войти:  Facebook Google Twitter Vk Yandex Mail.ru
PrimaNota.ru - самый крупный в мире бесплатный архив песенных текстов, аккордов, табулатур и нот


Diego Lorenzini - En Los Conejos - табы, видео

Печатать
Лучшая metal-группа Петербурга

En Los Conejos

  • аккорды и текст

Based on this live version: https://www.youtube.com/watch?v=UsdZ9H9qFiU


[Verse]

e|-----------------------5p3----------------------|
B|-----5/6------6------------5p3------------6-----|
G|-----6/7------7----------------3--------7-------|
D|--------------------------------------7-----7---|
A|------------------------------------------------|
D|---0----8---8---8---3--------------5------------|

e|-----------------------------3----------5----|
B|-----5/6--------6------------3----------5----|
G|-----6/7--------7----------3----------5------|
D|---------------------------------------------|
A|---------------------------------------------|
D|---0-----8----8---8---3-3-------3/5-5--------|



************************************

| p  Pull-off
| /  Slide up

************************************   
Другие материалы по этой песне:
  • Аккорды и текст

https://primanota.ru/diego-lorenzini/en-los-conejos-chords.htm

Привет, гитарист!

Тебе подарок от сайта PrimaNota.ru

Забрать подарок
ВАМ ПОДАРКИ ОТ ПРОЕКТА
"ГИТАРНАЯ РЕВОЛЮЦИЯ"