Войти:  Facebook Google Twitter Vk Yandex Mail.ru
PrimaNota.ru - самый крупный в мире бесплатный архив песенных текстов, аккордов, табулатур и нот


Di-rect - Fired Up - аккорды и текст, видео

Печатать
Просмотров: 83
Лучшая metal-группа Петербурга

Fired Up

  • аккорды и текст
Тональность: 
0
Проще! Аппликатуры

Fired Up
Di-rect
[Start]

Gm Gm Am

[Intro]


Dm C Bb  X2  

Guitar 1 riff (with some slight variations) The second bar is played during the verse.

e|-5--5-5---------------------------------------------------| 
B|-6--6-6-5---------------------------10~~------------------| 
G|-7--7-7-5---------------------------10~~-10-10-10---------| 
D|-7--7-7-5----5h7--3~------12--12-12---------------12--10--| 
A|-5--5-5-5-----------5-------------------------------------| 
E|----------------------------------------------------------| 

Guitar 2 plays and continues during verse 1 and 2:

e|---------------------------------------------------------------------------------|
B|---------------------------------------------------------------------------------|
G|---------------------------------------------------------------------------------|
D|---------------------------------------------------------------------------------|
A|-5-5--5-5--5-5--5-5--8-8--8-8--8-8--8-8--5-5--5-5--5-5--5-5--5-5--5-5--8-8--8-8--|
E|---------------------------------------------------------------------------------|

[Verse 1]
Dm                C                        Bb
By the way, gotta say I'm 'bout to lose my mind I'm fired up
Dm                      C                       Bb
Why would I lie to you? Won't you see for yourself? Oh lord
Dm                      C                       Bb
You can scream, make a scene. Honestly I don't care, don't mind 
Dm                            C            Bb
So you can take me on, do you have what it takes?


[Chorus 1]
                  Gm                Bb
We need to settle down. We need to settle
                 Gm                       Bb         Gm  Am
We need to come around, but we can't calm down, no, no


[Play intro]


[Verse 2]
Dm                     C                      Bb
Break a leg, swing a fist and give it all you got
Dm                           C             Bb
I can see right through you. All I see is myself, myself
Dm                    C                Bb
Shout it out to me. Break the sound barrier, oh lord
Dm                       C              Bb
So I can take you on, if I have what it takes


[Chorus]
                  Gm               Bb
We need to settle down. We need to settle
                 Gm                       Bb         Gm  Am
We need to come around, but we can't calm down, no, no



[Bridge part 1]
Dm          C           Bb 
Dm          C           Bb 
          Come around, girl 
Dm          C           Bb  
              Make no mistake, hey baby 
Dm          C           Bb  
              Cause you can come around, baby
Gm     C Gm    Am Bb   
Ooh ooh ooh             
Gm     C Gm    Am Bb        


[Bridge part 2]
Gm                                                   Am   Bb
Raise your hands, gather up,   You're 'bout to cross that line, oh yeah
Dm                               Bb
Break that chain, have no fear.  Show me that you're still alive, yeah
Gm                                                                     Am  Bb
Stretch your arms, all the way.   You're 'bout to touch that sky, oh my
Dm                          C   
Im so fired up, we are here We go for broke 'til we die



[Chorus]
Gm                Bb                     Dm
We need to settle down We need to settle down
                C                     Gm        
We need to settle   We need to settle down
                  Bb                     Dm     
We need to settle down We need to settle down
                    C
But we can't calm down, no, no, yeah



[Outro] 
Gm    Bb   X4

Gm Gm Am
Добавлено: 24.06.2018
Другие материалы по этой песне:
  • Аккорды и текст

Страница создана 24.06.2018
https://primanota.ru/di-rect/fired-up-chords.htm

Привет, гитарист!

Тебе подарок от сайта PrimaNota.ru

Забрать подарок
ВАМ ПОДАРКИ ОТ ПРОЕКТА
"ГИТАРНАЯ РЕВОЛЮЦИЯ"