Войти:  Facebook Google Twitter Vk Yandex Mail.ru
PrimaNota.ru - самый крупный в мире бесплатный архив песенных текстов, аккордов, табулатур и нот


ДЕТИДЕТЕЙ - Колыбельная - аккорды и текст, видео

Печатать
Лучшая metal-группа Петербурга

Колыбельная

  • аккорды и текст
Тональность: 
0
Проще! Аппликатуры

Колыбельная
ДЕТИДЕТЕЙ
E||----------------------------|-------------------------|---------------------------|-------------------------| 
B||----------------------------|-------------------------|---------------------------|-------------------------| 
G||*---------------------------|-------------------------|---------------------------|-------------------------| 
D||*----------------7----------|-------------------------|----------------7----------|-------------------------| 
A||------7-----7----------7----|--------2-----4-----2----|-----7-----7----------7----|-----2--2--2--4-----2----| 
E||---5-----5------------------|-----0-----0-------------|--5-----5------------------|-----0--0--0--0----------| 

|--------------------------|---------------------------|---------------------------|-------------------------|| 
|--------------------------|---------------------------|---------------------------|-------------------------|| 
|--------------------------|---------------------------|---------------------------|------------------------*|| 
|---------------2----------|---------------------------|---------------------------|------------------------*|| 
|------4-----4--------4----|--------2-----4-----2s--4--|-----4-----------2--4--2---|-----4-------2--2--4--2--|| 
|---2-----2----------------|-----0-----0---------------|--2--------2--0------------|--2-------2--0--0--0--0--|| 

Ну слушай. 
В одном домике с острой крышей жил был 
маленький мальчик Ванька-ураган. Ты спросишь: 
-Почему ураган? 
Потому что когда он родился, был сииильный ураган. 
Но потом пришло солнышко и принесло ему счастливую жизнь. 
У мальчика было много друзей, таких же маленьких, 
как и он сам. И о них я тебе сейчас расскажу. 

Доча спит, во снах находит 
Старые игрушки, 
И рисует карту мира 
Слюнкой на подушке. 

Сына спит, во снах всех фрицев 
Держит он на мушке, 
И сопит наш победитель 
Уличной войнушки. 

Дети спят, а завтра будут 
Помогать друг дружке. 
Доча сына познакомит 
С котиком на кружке. 

По дороге в школу сына 
Ранец поднесёт дочушке. 
Ну а мы проводим взглядом 
Милые макушки.    
https://primanota.ru/detidetei/kolybelnaya-chords.htm

Привет, гитарист!

Тебе подарок от сайта PrimaNota.ru

Забрать подарок
ВАМ ПОДАРКИ ОТ ПРОЕКТА
"ГИТАРНАЯ РЕВОЛЮЦИЯ"