Войти:  Facebook Google Twitter Vk Yandex Mail.ru
PrimaNota.ru - самый крупный в мире бесплатный архив песенных текстов, аккордов, табулатур и нот


Del Shannon - Be My Friend - бас-таба

Печатать
ViraMusic 2019 в Петербурге 4 апреля 2019! Скидка 10%!

Be My Friend

  • аккорды, текст

Tabbed by: 6METAL6BASSIST6
E-mail: petergriffinav@gmail.com

Tuning: EADG

G|----------------------------------------------------------------|
D|----------------------------------------------------------------| x2
A|----------------3-------5-----------------------3-------5-------|
E|5-------------------------------5-------------------------------|

0:10

G|----------------------------------------------------------------|
D|----------------------------------------------------------------| x2
A|----------------3-------5-----------------------3-------5-------|
E|5-------------------------------5-------------------------------|

G|----------------------------------------------------------------|
D|----------------------------------------------------------------|
A|----------------5---------------3-------------------------------|
E|5-----------------------------------------------3---------------|

0:26

G|----------------------------------------------------------------|
D|----------------------------------------------------------------| x3
A|----------------3-------5-----------------------3-------5-------|
E|5-------------------------------5-------------------------------|

G|----------------------------------------------------------------|
D|----------------------------------------------------------------|
A|----------------3-------3-------5-------5-------3-------3-------|
E|5---------------------------------------------------------------|

G|----------------------------------------------------------------|
D|----------------------------------------------------------------|
A|------------------------------/-7-------------/-7-----/-7-------|
E|3-------3-------1-------1---------------------------------------|

0:49

G|----------------------------------------------------------------|
D|----------------------------------------------------------------| x2
A|----------------3-------5-----------------------3-------5-------|
E|5-------------------------------5-------------------------------|

G|----------------------------------------------------------------|
D|----------------------------------------------------------------|
A|----------------5-------5-------3-------3-----------------------|
E|5-------5---------------------------------------3---------------|

1:03

G|----------------------------------------------------------------|
D|----------------------------------------------------------------| x3
A|----------------3-------5-----------------------3-------5-------|
E|5-------------------------------5-------------------------------|

G|----------------------------------------------------------------|
D|----------------------------------------------------------------|
A|----------------3-------3-------5-------5-------3-------3-------|
E|5-------5-------------------------------------------------------|

G|----------------------------------------------------------------|
D|----------------------------------------------------------------|
A|------------------------------/-7---------------7---------------|
E|3-------3-------1-----------------------------------------------|

1:28

G|------------------------------------------------------------------------|
D|------------------3-----------------------------------------------------|
A|5---------------------------------5-3---------------------------------5-|
E|------------------------------------------------0-----5-----------------|

G|------------------------------------------------------------------------|
D|----------------------------/-7-----------------------------------------|
A|7-----------------7-------------------------------------------------3-4-|
E|------------------------------------5---------------5-5-----------5-----|

G|--------------------------------------------------------------|
D|------------------5---4---3-----------------------------------|
A|5-------------------------------------5---4-3-----------------|
E|--------------------------------------------------------0-----|

G|------------------------------------------------|
D|------------------------------------------------|
A|------------------------------------------------|
E|5-----------------------------------------------|

G|----------------------------------------------------------------|
D|----------------------------------------------------------------|
A|------------------------------/-7-----/-7-----/-7-----/-7-------|
E|3---------------1-----------------------------------------------|

1:50

G|----------------------------------------------------------------|
D|----------------------------------------------------------------| x2
A|----------------3-------5-----------------------3-------5-------|
E|5-------------------------------5-------------------------------|

G|----------------------------------------------------------------|
D|----------------------------------------------------------------|
A|----------------5-------5-------3-------3-----------------------|
E|5-------5---------------------------------------3---------------|

2:04 until fadeout.

G|----------------------------------------------------------------|
D|----------------------------------------------------------------|
A|----------------3-------5-----------------------3-------5-------|
E|5-------------------------------5-------------------------------|   
https://primanota.ru/del-shannon/be-my-friend-chords.htm

Привет, гитарист!

Тебе подарок от сайта PrimaNota.ru

Забрать подарок
ВАМ ПОДАРКИ ОТ ПРОЕКТА
"ГИТАРНАЯ РЕВОЛЮЦИЯ"