Войти:  Facebook Google Twitter Vk Yandex Mail.ru
PrimaNota.ru - самый крупный в мире бесплатный архив песенных текстов, аккордов, табулатур и нот


Death Cab For Cutie - El Dorado - аккорды и текст, таба, видео

Печатать
Просмотров: 240
Лучшая metal-группа Петербурга

El Dorado

  • аккорды и текст
Тональность: 
0
Проще! Аппликатуры

El Dorado
Death Cab For Cutie
El Dorado
by Death Cab for Cutie
----

[Intro]

e|---------------------------------------------------------------------------|
B|---------------------------------------------------------------------------|
G|-------2-------3-------2-------0---0-----------0---0-----------------------|
D|---0-------0-------0-------0-----------3---3-----------3---3---3-----------|X2
A|-1---1---1---1---1---1---1---1---1---1---1---1---1---1---1---1-------------|
E|---------------------------------------------------------------------------|

e|---------------------------------------------------------------------------|
B|---------------------------------------------------------------------------|
G|--------0---------------0---------------0----------------------------------|
D|----8-------8---8---8-------8---8---5-------5---5---5---5---5---5----------|X2
A|-/6---6---6---6---5---5---5---5---3---3---3---3----------------------------|
E|--------------------------------------------------3---3---3---3------------|


[Verse]

Bb7M  
Seems you finally found, finally found El Dorado
Bb7M  
Over in Culver City, shining bright, name in lights
      Eb    Gm    Cm        Gm      
And I tried to be hyped for you
       Eb     Gm    Cm        Gm  
Oh I'm trying to be hyped for you

Bb7M  

Bb7M  
It's kinda like a party that you never wanted to attend
Bb7M  
But when an invitation finally arrives you change your mind
      Eb    Gm    Cm        Gm      
And I tried to be hyped for you
       Eb     Gm    Cm        Gm  
Oh I'm trying to be hyped for you


    Eb               F              C               Bb              Bb7M  
e|------------------------------------------------------------------------------------|
B|------------------------------------------------------------------------------------|
G|--------0---------------0---------------0---------------0---------------0-----------|
D|----8-------8---8---10------10--10--10------10--10----------------------------------|
A|-/6---6---6---6---8---8---8---8---7---7---7---7-----8-------8---8---8-------8---8---|
E|--------------------------------------------------6---6---6---6---5---5---5---5-----|
As you slip         away         behind         the gates,        behind the         gates


[Interlude]

Gm     F     Dm C
Bb
Eb Eb7M        Cm Gm x2


[Verse]

Bb
Seems you finally found, finally found El Dorado
Bb
So why does it feel underwhelming, barely real?
      Eb    Gm    Cm        Gm      
And I tried to be hyped for you
       Eb     Gm    Cm        Gm  
Oh I'm trying to be hyped for you
       Eb   F      C        Bb
As you slip away behind the gates
  Bb7M     Gm
Behind the gates

Gm      F     Dm  C

[Outro]

Bb7M  
El Dorado
Bb7M  
El Dorado
Bb7M  
El Dorado
Bb7M  
El Dorado
Добавлено: 20.06.2018
Другие материалы по этой песне:
  • Аккорды и текст

Страница создана 05.09.2015
https://primanota.ru/death-cab-for-cutie/el-dorado-chords.htm

Привет, гитарист!

Тебе подарок от сайта PrimaNota.ru

Забрать подарок
ВАМ ПОДАРКИ ОТ ПРОЕКТА
"ГИТАРНАЯ РЕВОЛЮЦИЯ"