Войти:  Facebook Google Twitter Vk Yandex Mail.ru
PrimaNota.ru - самый крупный в мире бесплатный архив песенных текстов, аккордов, табулатур и нот


Deas Vail - This Place Is Painted Red - текст песни, бас-таба

Печатать
Лучшая metal-группа Петербурга

This Place Is Painted Red

  • аккорды, текст

Intro/verse
G|-------------------------------------------------------------------------|
D|-------------------------------------------------------------------------|
A|--2---0------------------------------------------------------------------|
E|----------2---3----------------------------------------------------------|

Prechorus
G|-------------------------------------------------------------------------|
D|-------------------------------------------------------------------------|
A|-------------------------------------------------------------------------|
E|-5555555555555555-5555555555555555---------------------------------------|

Chorus
G|-------------------------------------------------------------------------|
D|-------------------------------------------------------------------------|
A|--5-5--------------------------------------------------------------------|
E|------2---5-5-3----------------------------------------------------------|

Buildup after second chorus
G|-------------------------------------------------------------------------|
D|-------------------------------------------------------------------------|
A|--555555...--------------------------------------------------------------|
E|-------------------------------------------------------------------------|

Ending (with small variations on repeats)
G|-------------------------------------------------------------------------|
D|------------2-----2-4-----2----------------------------------------------|
A|-5--2--0--24-4--5-----2-4---0--------------------------------------------|
E|-------------------------------------------------------------------------|
   
https://primanota.ru/deas-vail/this-place-is-painted-red-chords.htm

Привет, гитарист!

Тебе подарок от сайта PrimaNota.ru

Забрать подарок
ВАМ ПОДАРКИ ОТ ПРОЕКТА
"ГИТАРНАЯ РЕВОЛЮЦИЯ"