Войти:  Facebook Google Twitter Vk Yandex Mail.ru
PrimaNota.ru - самый крупный в мире бесплатный архив песенных текстов, аккордов, табулатур и нот


Deaf Havana - Smiles All Round - табы, бас-таба, видео

Печатать
Лучшая metal-группа Петербурга

Smiles All Round

  • аккорды и текст

Intro:

e|-----------------|-----------------|-----------------|-----------------|
B|-----------------|-----------------|-----------------|-----------------|
G|-----------------|-----------------|-----------------|-----------------|
D|-----------------|-----------------|-----------------|-----------------|
A|-----------------|-----------------|-----------------|-----------------|
D|-0-0-0-2-2-2-4-4-|-4-7-7-7-7-7-7-7-|-0-0-0-2-2-2-4-4-|-4-7-7-7-7-7-7-7-|

   1 + 2 + 3 + 4 +   1 + 2 + 3 + 4 +   1 + 2 + 3 + 4 +   1 + 2 + 3 + 4 +

Verse: x2

e|-----------------|-----------------|-----------------|-----------------|
B|-----------------|-----------------|-----------------|-----------------|
G|-----------------|-----------------|-----------------|-----------------|
D|-----------------|-----------------|-----------------|-----------------|
A|-0-0-0-2-2-2-4-4-|-4-4-4-4-4-4-4-4-|-0-0-0-2-2-2-4-4-|-4-4-4-4-4-4-4-4-|
D|-0-0-0-2-2-2-4-4-|-4-4-4-4-4-4-4-4-|-0-0-0-2-2-2-4-4-|-4-4-4-4-4-4-4-4-|

   1 + 2 + 3 + 4 +   1 + 2 + 3 + 4 +   1 + 2 + 3 + 4 +   1 + 2 + 3 + 4 +

e|-----------------|-----------------|-----------------|-----------------|
B|-----------------|-----------------|-----------------|-----------------|
G|-----------------|-----------------|-----------------|-----------------|
D|-----------------|-----------------|-----------------|-----------------|
A|-0-0-0-2-2-2-4-4-|-4-4-4-4-4-4-4-4-|-2-2-2-2-2-2-2-2-|-2-2-2-2-2-2-2-2-|
D|-0-0-0-2-2-2-4-4-|-4-4-4-4-4-4-4-4-|-2-2-2-2-2-2-2-2-|-2-2-2-2-2-2-2-2-|

   1 + 2 + 3 + 4 +   1 + 2 + 3 + 4 +   1 + 2 + 3 + 4 +   1 + 2 + 3 + 4 +

pre-verse?: x2
e|-----------------|-----------------|-----------------|-----------------|
B|-7-----------5---|---------2-------|-----------------|-----------------|
G|-----------------|-----------------|-----------------|-----------------|
D|-----------------|-----------------|-----------------|-----------------|
A|-----------------|-----------------|-----------------|-----------------|
D|-----------------|-----------------|-----------------|-----------------|

   1 + 2 + 3 + 4 +   1 + 2 + 3 + 4 +   1 + 2 + 3 + 4 +   1 + 2 + 3 + 4 +


Verse 2: x2

e|-----------------|-----------------|-----------------|-----------------|
B|-----------------|-----------------|-----------------|-----------------|
G|:----------------|-----------------|-----------------|-----------------|
D|-----------------|-----------------|-----------------|-----------------|
A|-0-0-0-2-2-2-4-4-|-4-4-4-4-4-4-4-4-|-0-0-0-2-2-2-4-4-|-4-4-4-4-4-4-4-4-|
D|-0-0-0-2-2-2-4-4-|-4-4-4-4-4-4-4-4-|-0-0-0-2-2-2-4-4-|-4-4-4-4-4-4-4-4-|

   1 + 2 + 3 + 4 +   1 + 2 + 3 + 4 +   1 + 2 + 3 + 4 +   1 + 2 + 3 + 4 +

e|-----------------|-----------------|-----------------|-----------------|
B|-----------------|-----------------|-----------------|-----------------|
G|-----------------|-----------------|-----------------|-----------------|
D|-----------------|-----------------|-----------------|-----------------|
A|-0-0-0-2-2-2-4-4-|-4-4-4-4-4-4-4-4-|-2-2-2-2-2-2-2-2-|-2-2-2-2-2-2-2-2-|
D|-0-0-0-2-2-2-4-4-|-4-4-4-4-4-4-4-4-|-2-2-2-2-2-2-2-2-|-2-2-2-2-2-2-2-2-|

   1 + 2 + 3 + 4 +   1 + 2 + 3 + 4 +   1 + 2 + 3 + 4 +   1 + 2 + 3 + 4 +


e|-----------------|-----------------|
B|-----------------|-----------------|
G|-----------------|-----------------|
D|-----------------|-----------------|
A|-4---------------|-2---------------|
D|-4---------------|-2---------------|

   1 + 2 + 3 + 4 +   1 + 2 + 3 + 4 +   


Chorus: 

e|-----------------|-----------------|-----------------|-----------------|
B|-----------------|-----------------|-----------------|-----------------|
G|-----------------|-----------------|-----------------|-----------------|
D|-----------------|-----------------|-----------------|-----------------|X3
A|-0-0-0-0-0-0-0-0-|-2-2-2-2-2-2-2-2-|-4-4-4-4-4-4-4-4-|-2-2-2-2-2-2-2-2-|
D|-0-0-0-0-0-0-0-0-|-2-2-2-2-2-2-2-2-|-4-4-4-4-4-4-4-4-|-2-2-2-2-2-2-2-2-|
   1 + 2 + 3 + 4 +   1 + 2 + 3 + 4 +   1 + 2 + 3 + 4 +   1 + 2 + 3 + 4 +

e|-----------------|-----------------|-----------------|-----------------|
B|-----------------|-----------------|-----------------|-----------------|
G|-----------------|-----------------|-----------------|-----------------|
D|-----------------|-----------------|-----------------|-----------------|x1
A|-0-0-0-0-0-0-0-0-|-2-2-2-2-2-2-2-2-|-4-4-4-4-4-4-4-4-|-4-4-4-4-4-4-4-4-|
D|-0-0-0-0-0-0-0-0-|-2-2-2-2-2-2-2-2-|-4-4-4-4-4-4-4-4-|-4-4-4-4-4-4-4-4-|
   1 + 2 + 3 + 4 +   1 + 2 + 3 + 4 +   1 + 2 + 3 + 4 +   1 + 2 + 3 + 4 +


(not sure what happens after the chorus, i cant hear it that well)

X2
e|-----------------|-----------------|-----------------|-----------------|
B|-----------------|-----------------|-----------------|-----------------|
G|:----------------|-----------------|-----------------|-----------------|
D|-----------------|-----------------|-----------------|-----------------|
A|-0-0-0-2-2-2-4-4-|-4-4-4-4-4-4-4-4-|-0-0-0-2-2-2-4-4-|-4-4-4-4-4-4-4-4-|
D|-0-0-0-2-2-2-4-4-|-4-4-4-4-4-4-4-4-|-0-0-0-2-2-2-4-4-|-4-4-4-4-4-4-4-4-|

   1 + 2 + 3 + 4 +   1 + 2 + 3 + 4 +   1 + 2 + 3 + 4 +   1 + 2 + 3 + 4 +


Chorus:

e|-----------------|-----------------|-----------------|-----------------|
B|-----------------|-----------------|-----------------|-----------------|
G|-----------------|-----------------|-----------------|-----------------|
D|-----------------|-----------------|-----------------|-----------------|
A|-----------------|---------x-x-x-x-|-4-4-4-4-4-4-4-4-|-2-2-2-2-2-2-2-2-|
D|-----------------|---------x-x-x-x-|-4-4-4-4-4-4-4-4-|-2-2-2-2-2-2-2-2-|
   1 + 2 + 3 + 4 +   1 + 2 + 3 + 4 +   1 + 2 + 3 + 4 +   1 + 2 + 3 + 4 +

e|-----------------|-----------------|-----------------|-----------------|
B|-----------------|-----------------|-----------------|-----------------|
G|-----------------|-----------------|-----------------|-----------------|
D|-----------------|-----------------|-----------------|-----------------|
A|-0-0-0-0-0-0-0-0-|-2-2-2-2-2-2-2-2-|-4-4-4-4-4-4-4-4-|-4-4-4-4-4-4-4-4-|
D|-0-0-0-0-0-0-0-0-|-2-2-2-2-2-2-2-2-|-4-4-4-4-4-4-4-4-|-4-4-4-4-4-4-4-4-|
   1 + 2 + 3 + 4 +   1 + 2 + 3 + 4 +   1 + 2 + 3 + 4 +   1 + 2 + 3 + 4 +

e|-----------------|-----------------|-----------------|-----------------|
B|-----------------|-----------------|-----------------|-----------------|
G|-----------------|-----------------|-----------------|-----------------|
D|-----------------|-----------------|-----------------|-----------------|
A|-0-0-0-0-0-0-0-0-|-2-2-2-2-2-2-2-2-|-4-4-4-4-4-4-4-4-|-2-2-2-2-2-2-2-2-|
D|-0-0-0-0-0-0-0-0-|-2-2-2-2-2-2-2-2-|-4-4-4-4-4-4-4-4-|-2-2-2-2-2-2-2-2-|
   1 + 2 + 3 + 4 +   1 + 2 + 3 + 4 +   1 + 2 + 3 + 4 +   1 + 2 + 3 + 4 +

e|-----------------|-----------------|-----------------|-----------------|
B|-----------------|-----------------|-----------------|-----------------|
G|-----------------|-----------------|-----------------|-----------------|
D|-----------------|-----------------|-----------------|-----------------|
A|-0-0-0-0-0-0-0-0-|-2-2-2-2-2-2-2-2-|-4-4-4-4-4-4-4-4-|-2-2-2-2-2-2-2-2-|
D|-0-0-0-0-0-0-0-0-|-2-2-2-2-2-2-2-2-|-4-4-4-4-4-4-4-4-|-2-2-2-2-2-2-2-2-|
   1 + 2 + 3 + 4 +   1 + 2 + 3 + 4 +   1 + 2 + 3 + 4 +   1 + 2 + 3 + 4 +

e|-----------------|
B|-----------------|
G|-----------------|
D|-----------------|
A|-0---------------|
D|-0---------------|   

   1 + 2 + 3 + 4 +  

i dont know whats played in the outro either.

i tried as best i could. enjoy   
Добавлено: 08.04.2012
Другие материалы по этой песне:
  • Аккорды и текст

Страница создана 08.04.2012
https://primanota.ru/deaf-havana/smiles-all-round-chords.htm

Привет, гитарист!

Тебе подарок от сайта PrimaNota.ru

Забрать подарок
ВАМ ПОДАРКИ ОТ ПРОЕКТА
"ГИТАРНАЯ РЕВОЛЮЦИЯ"