Войти:  Facebook Google Twitter Vk Yandex Mail.ru
PrimaNota.ru - самый крупный в мире бесплатный архив песенных текстов, аккордов, табулатур и нот


Dave Vanian and the Phantom Chords - Voodoo Doll - таба, видео

Печатать
Просмотров: 76
Лучшая metal-группа Петербурга

Voodoo Doll

  • аккорды и текст

-----------------------------------------------------------------
VOODOO DOLL - Dave Vanian and the Phantom Chords
-----------------------------------------------------------------
Tabbed by: Humphrey1999
E-mail: ladyrotten1977@gmail.com

I tried to make the tab as accurate as I could, it's a great song to fiddle 
around with so the little licks may not be 100% correct as this is how I 
play the tab.
If there's anything you want/needs changing please don't hesitate to tell me.

The song can be found on YouTube here:  https://www.youtube.com/watch?v=aV8C-qsrcA4
Buy the song off of iTunes here:        https://itunes.apple.com/tt/artist/the-phantom-chords/id285852343

Tuning: EADGBe
No Capo 

[Intro]

e|---------------------------------------------------------------|
B|---------------------------------------------------------------|
G|---2--2--2----2--2----2--2--2--2----2--2-----------------------|
D|---2--2--2----2--2----2--2--2--2----2--2-----------------------|
A|---0--0--3----0--3----0--0--0--3----3--0-----------------------|
E|---------------------------------------------------------------|

e|---------------------------------------------------------------|
B|---------------------------------------------------------------|
G|---2--2--2--2----2--2----2--2--2--2----2--2--------------------|
D|---2--2--2--2----2--2----2--2--2--2----2--2--------------------|
A|---0--0--0--3----0--3----0--0--0--3----3--0--------------------|
E|---------------------------------------------------------------|

e|---------------------------------------------------------------|
B|---------------------------------------------------------------|
G|---2--2--2--2----2--2----2--2--2--2----2--2--------------------|
D|---2--2--2--2----2--2----2--2--2--2----2--2--------------------|
A|---0--0--0--3----0--3----0--0--0--3----3--0--------------------|
E|---------------------------------------------------------------|

e|---------------------------------------------------------------|
B|---------------------------------------------------------------|
G|---2--2--2--2----2--2----2--2--2--2----2--2--------------------|
D|---2--2--2--2----2--2----2--2--2--2----2--2--------------------|
A|---0--0--0--3----0--3----0--0--0--3----3--0--------------------|
E|---------------------------------------------------------------|
                                         Snake-eyed little
[Verse 1]

e|---------------------------------------------------------------|
B|---------------------------------------------------------------|
G|---2--2--2--2----2--2----2--2--2--2----2--2----2---------------|
D|---2--2--2--2----2--2----2--2--2--2----2--2----2---------------|
A|---0--0--0--3----0--3----0--0--0--3----3--0----3---------------|
E|---------------------------------------------------------------|
     Voodoo,                    A spider queen

e|---------------------------------------------------------------|
B|---3--3--3----3--3----3--3--3--3----3--3----3------------------|
G|---2--2--2----2--2----2--2--2--2----2--2----2------------------|
D|---0--0--3----0--3----0--0--0--3----3--0----3------------------|
A|---------------------------------------------------------------|
E|---------------------------------------------------------------|
     creole.                          Spellbound by the 

e|---------------------------------------------------------------|
B|---------------------------------------------------------------|
G|---2--2--2--2----2--2----2--2--2--2----2--2--------------------|
D|---2--2--2--2----2--2----2--2--2--2----2--2--------------------|
A|---0--0--0--3----0--3----0--0--0--3----3--0--------------------|
E|---------------------------------------------------------------|
     hoodoo,                            yeah.

e|---------------------------------------------------------------|
B|---------------------------------------------------------------|
G|---------------------------------------------------------------|
D|---2-----------------------------------------------------------|
A|---2----------------------2------------------------------------|
E|---0----------------------3------------------------------------|
     When she gets loaded, She is a Voodoo

e|---------------------------------------------------------------|
B|---------------------------------------------------------------|
G|---2--2--2----2--2----2----------------------------------------|
D|---2--2--2----2--2----2----------------------------------------|
A|---0--0--3----0--3----0--3/5--3--0-----3--0--------------------|
E|------------------------------------3--------------------------|
     Doll.

[Verse 2]

e|---------------------------------------------------------------|
B|---------------------------------------------------------------|
G|---2--2--2----2--2----2--2--2--2----2--2-----------------------|
D|---2--2--2----2--2----2--2--2--2----2--2-----------------------|
A|---0--0--3----0--3----0--0--0--3----3--0-----------------------|
E|---------------------------------------------------------------|
     Like a canon in Mazango, 

e|---------------------------------------------------------------|
B|---------------------------------------------------------------|
G|---2--2--2--2----2--2----2--2--2--2----2--2----2---------------|
D|---2--2--2--2----2--2----2--2--2--2----2--2----2---------------|
A|---0--0--0--3----0--3----0--0--0--3----3--0----3---------------|
E|---------------------------------------------------------------|
     Kiss her poison lips.

e|---------------------------------------------------------------|
B|---3--3--3----3--3----3--3--3--3----3--3----3------------------|
G|---2--2--2----2--2----2--2--2--2----2--2----2------------------|
D|---0--0--3----0--3----0--0--0--3----3--0----3------------------|
A|---------------------------------------------------------------|
E|---------------------------------------------------------------|
    A beat of wild fandango,            In the 

e|---------------------------------------------------------------|
B|---------------------------------------------------------------|
G|---2--2--2--2----2--2----2--2--2--2----2--2--------------------|
D|---2--2--2--2----2--2----2--2--2--2----2--2--------------------|
A|---0--0--0--3----0--3----0--0--0--3----3--0--------------------|
E|---------------------------------------------------------------|
     rhythm of her hips.

e|---------------------------------------------------------------|
B|---------------------------------------------------------------|
G|---------------------------------------------------------------|
D|---2-----------------------------------------------------------|
A|---2----------------------2------------------------------------|
E|---0----------------------3------------------------------------|
     When she gets loaded, So mean you will

e|---------------------------------------------------------------|
B|---------------------------------------------------------------|
G|---2--2--2----2--2----2----------------------------------------|
D|---2--2--2----2--2----2----------------------------------------|
A|---0--0--3----0--3----0----3--0-------5--3--0--3---------------|
E|----------------------------------3----------------------------|
     fall.

[Instrumental]

e|---------------------------------------------------------------|
B|---------------------------------------------------------------|
G|---2--2--2----2--2----2--2--2--2----2--2-----------------------|
D|---2--2--2----2--2----2--2--2--2----2--2-----------------------|
A|---0--0--3----0--3----0--0--0--3----3--0-----------------------|
E|---------------------------------------------------------------|

e|---------------------------------------------------------------|
B|---------------------------------------------------------------|
G|---2--2--2--2----2--2----2--2--2--2----2--2----2---------------|
D|---2--2--2--2----2--2----2--2--2--2----2--2----2---------------|
A|---0--0--0--3----0--3----0--0--0--3----3--0----3---------------|
E|---------------------------------------------------------------|

e|---------------------------------------------------------------|
B|---3--3--3----3--3----3--3--3--3----3--3----3------------------|
G|---2--2--2----2--2----2--2--2--2----2--2----2------------------|
D|---0--0--3----0--3----0--0--0--3----3--0----3------------------|
A|---------------------------------------------------------------|
E|---------------------------------------------------------------|

e|---------------------------------------------------------------|
B|---------------------------------------------------------------|
G|---2--2--2----2--2----2--2--2--2----2--2-----------------------|
D|---2--2--2----2--2----2--2--2--2----2--2-----------------------|
A|---0--0--3----0--3----0--0--0--3----3--0-----------------------|
E|---------------------------------------------------------------|

e|---------------------------------------------------------------|
B|---------------------------------------------------------------|
G|---------------------------------------------------------------|
D|---2-----------------------------------------------------------|
A|---2----------------------2------------------------------------|
E|---0----------------------3------------------------------------|

e|---------------------------------------------------------------|
B|---------------------------------------------------------------|
G|---2--2--2----2--2----2--2--2--2----2--2-----------------------|
D|---2--2--2----2--2----2--2--2--2----2--2-----------------------|
A|---0--0--3----0--3----0--0--0--3----3--0-----------------------|
E|---------------------------------------------------------------|

SYNTH SOLO
(There are two parts you can do for this section, the guitar or synth)

Synth:                (Tempo is different from here for synth)
e|-------0------------|------0------------------------------------|
B|-----------4--3--1--|---------4-3-1-----------------------------|
G|---2----------------|---2---------------------------------------|
D|--------------------|-------------------------------------------|
A|--------------------|-------------------------------------------|
E|--------------------|-------------------------------------------|

Guitar:
e|---------------------------------------------------------------|
B|---------------------------------------------------------------|
G|---------------------------------------------------------------|
D|---------------------------------------------------------------|
A|---0-0-0-0-0-0-0-0----0-0-0-0-0-0-0-0----0-0-0-0-0-0-0-0-------|
E|---------------------------------------------------------------|

e|---------------------------------------------------------------|
B|---------------------------------------------------------------|
G|---------------------------------------------------------------|
D|---------------------------------------------------------------|
A|---0-0-0-0-0-0-0-0---------------------------------------------|
E|---------------------------------------------------------------|
               Snake eyed little

[Verse 3]

e|---------------------------------------------------------------|
B|---------------------------------------------------------------|
G|---2--2--2----2--2----2--2--2--2----2--2-----------------------|
D|---2--2--2----2--2----2--2--2--2----2--2-----------------------|
A|---0--0--3----0--3----0--0--0--3----3--0-----------------------|
E|---------------------------------------------------------------|
     Voodoo,

e|---------------------------------------------------------------|
B|---------------------------------------------------------------|
G|---2--2--2--2----2--2----2--2--2--2----2--2----2---------------|
D|---2--2--2--2----2--2----2--2--2--2----2--2----2---------------|
A|---0--0--0--3----0--3----0--0--0--3----3--0----3---------------|
E|---------------------------------------------------------------|
     Seek out mambo doll.               Spellbound by her

e|---------------------------------------------------------------|
B|---3--3--3----3--3----3--3--3--3----3--3----3------------------|
G|---2--2--2----2--2----2--2--2--2----2--2----2------------------|
D|---0--0--3----0--3----0--0--0--3----3--0----3------------------|
A|---------------------------------------------------------------|
E|---------------------------------------------------------------|
     hoodoo,                    Yeah she'll catch you when you

e|---------------------------------------------------------------|
B|---------------------------------------------------------------|
G|---2--2--2----2--2----2--2--2--2----2--2-----------------------|
D|---2--2--2----2--2----2--2--2--2----2--2-----------------------|
A|---0--0--3----0--3----0--0--0--3----3--0-----------------------|
E|---------------------------------------------------------------|
     fall.      

e|---------------------------------------------------------------|
B|---------------------------------------------------------------|
G|---------------------------------------------------------------|
D|---2-----------------------------------------------------------|
A|---2------------------2----------------------------------------|
E|---0------------------3----------------------------------------|
    When she is loaded, man she's a voodoo doll.

ENDING INSTRUMENTAL

e|---------------------------------------------------------------|
B|---------------------------------------------------------------|
G|---2--2--2----2--2----2--2--2--2----2--2-----------------------|
D|---2--2--2----2--2----2--2--2--2----2--2-----------------------|
A|---0--0--3----0--3----0--0--0--3----3--0-----------------------|
E|---------------------------------------------------------------|

e|---------------------------------------------------------------|
B|---------------------------------------------------------------|
G|---2--2--2--2----2--2----2--2--2--2----2--2----2---------------|
D|---2--2--2--2----2--2----2--2--2--2----2--2----2---------------|
A|---0--0--0--3----0--3----0--0--0--3----3--0----3---------------|
E|---------------------------------------------------------------|

e|---------------------------------------------------------------|
B|---3--3--3----3--3----3--3--3--3----3--3----3------------------|
G|---2--2--2----2--2----2--2--2--2----2--2----2------------------|
D|---0--0--3----0--3----0--0--0--3----3--0----3------------------|
A|---------------------------------------------------------------|
E|---------------------------------------------------------------|

e|---------------------------------------------------------------|
B|---------------------------------------------------------------|
G|---2--2--2----2--2----2--2--2--2----2--2-----------------------|
D|---2--2--2----2--2----2--2--2--2----2--2-----------------------|
A|---0--0--3----0--3----0--0--0--3----3--0-----------------------|
E|---------------------------------------------------------------|

e|---------------------------------------------------------------|
B|---------------------------------------------------------------|
G|---------------------------------------------------------------|
D|---2-----------------------------------------------------------|
A|---2----------------------2------------------------------------|
E|---0----------------------3------------------------------------|

e|---------------------------------------------------------------|
B|---------------------------------------------------------------|
G|---------------------------------------------------------------|
D|---------------------------------------------------------------|
A|---3--0-----5--3--0--3--------5--3--0--------------------------|
E|---------3--------------3--5-----------------------------------|


**************************************************

| /  slide up
| \  slide down
| h  hammer-on
| p  pull-off
| ~  vibrato
| +  harmonic
| x  Mute note

**************************************************
Добавлено: 01.06.2018
Другие материалы по этой песне:
  • Аккорды и текст

Страница создана 01.06.2018
https://primanota.ru/dave-vanian-and-phantom-chords/voodoo-doll-chords.htm

Привет, гитарист!

Тебе подарок от сайта PrimaNota.ru

Забрать подарок
ВАМ ПОДАРКИ ОТ ПРОЕКТА
"ГИТАРНАЯ РЕВОЛЮЦИЯ"