# 0 1 2 3 4 5 6 7 8 9 A B C D E F G H I J K L M N O P Q R S T U V W X Y Z
А Б В Г Д Е Ж З И І Й К Л М Н О П Р С Т У Ф Х Ц Ч Ш Щ Ы Э Ю Я
Войти:  Facebook Google Twitter Vk Yandex Mail.ru



Darren Criss - Human - аккорды

 » 
 » 
Human
Нотный режим - новая уникальная возможность на нашем сайте!
  • аккорды, текст
Тональность: 
0
Масштаб: 
100%
Прокрутка: 
0
Проще!
Аппликатуры
Нотный режим
Human
Darren Criss
[ Предположительная тональность: D ]

    D  D#o7  Em   D9   G   F#m   Em   Bm   A    F#m  Bm7   B7   G  A9omit5    A7b13    Am7
E|--5---0----7----0----3----2----0----2----0----9-----7----7----10----x--------x--------5---|
B|--7---7----8----5----0----2----0----3----2----10----7----7----12----12-------6--------5---|
G|--7---5----9----5----0----2----0----4----2----11----7----8----12----12-------6--------5---|
D|--7---7----9----4----0----4----2----4----2----11----7----7----12----11-------5--------5---|
A|--5---6----7----5----2----4----2----2----0----9-----9----9----10----12-------x--------7---|
E|--x---x----7----x----3----2----0----2----x----9-----7----7----10----x--------5--------5---|



   Bbm7    E6  G   Gm   D   Dma7/E   A7  F#
E|--6------x---3---3----2----2-------0---2----------------------------------------|
B|--6------7---3---3----3----3-------2---2----------------------------------------|
G|--6------7---4---3----2----2-------0---3----------------------------------------|
D|--6------6---5---5----0----0-------2---4----------------------------------------|
A|--6------7---5---5----x----4-------0---4----------------------------------------|
E|--6------x---3---3----x----0-------x---2----------------------------------------|

Open Chords: *

                 D
I feel like a loser
D#o7         Em
I feel like I'm lost
                D
I feel like I'm not sure
      D9       G
If I feel anything at all

              F#m
But believe me
                 Em*
I'm not helpless
          Bm   A*           G*  A*
I just need someone to love
          D   F#m       Bm7 B7
So my situation's rough

           Em       F#m      G    A9omit5
That just makes me a dumb human
        D                      A7b13
Like you.

                        D
I feel like a shortstop
D#o7        Em
Along third base
               D
I may just help you but
   D9       G*
I still don't like your face

             F#m
But believe me
              Em*
I'm not hostile
       Bm      A*       G*     A*
I just want to hear you laugh
       D   F#m       Bm7 B7
When I'm sarcastic like that
              Em       F#m      G    A9omit5
And that just makes me a dumb human
        D
Like you.

Am7  Bbm7

Bm7
Why... do I have this
E9                  G*
Incredible need to stand up and say
                     D
Please pay attention?

Am7  Bbm7

Bm7                E9
It's the last thing that I need to
G*      F#m
Make myself see well
       Em*         A7b13
That ain't my intention

No...

                     D
I feel like an artist
   D#o7      Em
Who's lost his touch
                        D
He likes himself in his art
     D9      G
But not his art too much


G
But believe me
               Gm
I've got something
D*              Dma7/E    Bm    A*
I just don't know how to say
        G           A7*
That I'm just fine with the way
F#                    Bm7   B7
With the way that I'm moving
               Em     F#m  Fm    Em
But that just makes me a   dumb human
F#m              Fm/C
That just makes me
Em         F#m      G    A9omit5     D
That makes me a human like you...

Darren Criss - Human - ноты

(включить)
Другие материалы по этой песне:
  • Аккорды, текст

https://primanota.ru/darren-criss/human-chords.htm

Привет, гитарист!

Тебе подарок от сайта PrimaNota.ru

Забрать подарок
ВАМ ПОДАРКИ ОТ ПРОЕКТА
"ГИТАРНАЯ РЕВОЛЮЦИЯ"