» 
 » 
Костёр



DarLean - Костёр - аккорды

Чайковский в рок-аранжировке! Очень необычно, послушай!
Тональность: 
0
Масштаб: 
100%
Прокрутка: 
0
Проще!
Аппликатуры
Нотный режим
Костёр
DarLean
[ Предположительная тональность: C ]

G                   Gm           F                 C
1|-----------------------------------1---------------------------|
2|------3-1----------3-1---------1--1---------3---------------|
3|----0-----0------2-----2------2-----2-----4-----------------|
4|--2---------2--2---------2---3-----------5-------------------|
5|3-------------0----------------------------------------------|
6|-----------------------------1-----------3------------------------|

  G                   Gm           F                 C
1|-----------------------------------1---------------------------|
2|------3-1----------1-1---------1--1---------3---------------|
3|----0-----0------2-----2------2-----2-----4-----------------|
4|--2---------2--2---------2---3-----------5-------------------|
5|3-------------0----------------------------------------------|
6|-----------------------------1-----------3------------------------|

Первый куплет:

   G                        Gm
Мы родились в обычной стране
   F                         C
В городе что на деревню похожий
   G                        Gm
Мы так привыкли к морю во сне
    F                         C
И ко двору что в крапиве заросшей

   G                        Gm
Мы не хотели уехать от сюда
   F                           C
Добиться чего-то нам это не нужно
   G                             Gm
Скорее мечтали чтоб песни с гитарой
   F                                C
Никогда не кончались во дворе у костра

Припев:

   G                        Gm
Про нас не напишут книги
   F                         C
О нас не станут кино снимать
   G                        Gm
Про нас не узнают в мире
    F                         C
О нас не будет народ горевать
   G                        Gm
Про нас не напишут тысячу песен
   F                           C
Мы не похожи на Бони и Клайда
   G                             Gm
Да и хер с ними это не важно
   F                                C
Будем простыми в этом есть кайф G Gm F C

В этом есть кайф G Gm F C


Второй куплет:

   G                        Gm
Славные дни вспоминаем былые
   F                         C
Миллионы историй расскажется вновь
   G                        Gm
Мы верные слуги дешевого мира
    F                         C
Разбитый фонарь разбитая бровь

   G                        Gm
А Сердце не бьется оно нас не слышит
   F                           C
Время течет но не видно конца
   G                             Gm
Мы молодые мы все еще дышим
   F                                C
Разве не в этом прелесть всей жизни


Припев:

   G                        Gm
Про нас не напишут книги
   F                         C
О нас не станут кино снимать
   G                        Gm
Про нас не узнают в мире
    F                         C
О нас не будет народ горевать
   G                        Gm
Про нас не напишут тысячу песен
   F                           C
Мы не похожи на Бони и Клайда
   G                             Gm
Да и хер с ними это не важно
   F                                C
Будем простыми в этом есть кайф G Gm F C

В этом есть кайф G Gm F C

DarLean - Костёр - ноты

(включить)
Другие композиции этого автора:
https://primanota.ru/darlean/koster.htm

Привет, гитарист!

Тебе подарок от сайта PrimaNota.ru

Забрать подарок
ВАМ ПОДАРКИ ОТ ПРОЕКТА
"ГИТАРНАЯ РЕВОЛЮЦИЯ"