Войти:  Facebook Google Twitter Vk Yandex Mail.ru
PrimaNota.ru - самый крупный в мире бесплатный архив песенных текстов, аккордов, табулатур и нот


Daniel Norgren - I Waited For You - аккорды и текст, видео

Печатать
Лучшая metal-группа Петербурга

I Waited For You

  • аккорды и текст
Тональность: 
0
Проще! Аппликатуры

I Waited For You
Daniel Norgren
Capo 5

 [Intro]
       G            C                              G
e|-----------------------------------------------------------------------------------------------------------|
B|-----------0--------------------1--------1-----------------3---------------3-------------3-----------0-----|
G|-------------0---------------------0-----------------------------0--------------0------------0-------------|
D|------------------------------2-------2------------------------------4--------------4------------4---------|
A|-------2-----------0---2---3--------------------------5----------------------------------------------------|
E|----3---------------------------------------------5--------------------------------------------------------|

      C                    G                        G
e|---------------------------------------------------------------------------------------0-------------------|
B|-----------1--------0-----------0--------0-----------------3---------------3---------------3---------------|
G|-------------0---------------------0-----------------------------0--------------0--------------------------|
D|---------------2----------------------0------------------------------4--------------4----------------------|
A|-------3---------------------2------------------------5----------------------------------------------------|
E|----3---------------------3------------------------5-------------------------------------------------------|

G                 C            G
Like the wondering ghost for a harbor
   C                  G                  G
Like the ground beneath the snow for springtime
G                 C                  G
Like the believer for something to believe in
C                  G                  G
Like the drifting castaway for shoreline

C           G
I waited for you
G
All the way through
G
All the way down the line
C            G     G
I waited for you

C           G
I waited for you
G
All the way through
G
All the way down the line
C            G     G
I waited for you

G                 C            G
I burned out my eyes on the horizon
C                  G                  G
Sunups in the east and sundowns in the west
G                 C                  G
I watched them all for just one reason
C                  G                  G
Sun came up or down, I couldn't care less

C           G
I waited for you
G
All the way through
G
All the way down the line
C            G     G
I waited for you   
Другие материалы по этой песне:
  • Аккорды и текст

https://primanota.ru/daniel-norgren/i-waited-for-you-chords.htm

Привет, гитарист!

Тебе подарок от сайта PrimaNota.ru

Забрать подарок
ВАМ ПОДАРКИ ОТ ПРОЕКТА
"ГИТАРНАЯ РЕВОЛЮЦИЯ"