Войти:  Facebook Google Twitter Vk Yandex Mail.ru
PrimaNota.ru - самый крупный в мире бесплатный архив песенных текстов, аккордов, табулатур и нот


Cvetan Radoslavov - Bulgarian Anthem - таба, видео

Печатать
Просмотров: 170
Лучшая metal-группа Петербурга

Bulgarian Anthem

  • аккорды и текст

E |---5-5-7-8-7-5------5-5-7-8-7-5--------5-5-7-10-8-7-5-4-5-4-|
B |-5----------------5------------------5----------------------|
G |------------------------------------------------------------|
D |------------------------------------------------------------|
A |------------------------------------------------------------|
E |------------------------------------------------------------|


E |------4-5-[-7--8--10----12-10-8--10-12-----10-8--7--5-8--12-|
B |--6-5-----[-------------------------------------------------|
G |----------[-------------------------------------------------|
D |----------[-------------------------------------------------|
A |----------[-------------------------------------------------|
E |----------[-------------------------------------------------|


E |----10-8--7--5-4-5-4---------4-5--|
B |---------------------6-5-6-5------|
G |----------------------------------|
D |----------------------------------|
A |----------------------------------|
E |----------------------------------| x2
Добавлено: 20.06.2016
Другие материалы по этой песне:
  • Аккорды и текст

Страница создана 20.06.2016
https://primanota.ru/cvetan-radoslavov/bulgarian-anthem-chords.htm

Привет, гитарист!

Тебе подарок от сайта PrimaNota.ru

Забрать подарок
ВАМ ПОДАРКИ ОТ ПРОЕКТА
"ГИТАРНАЯ РЕВОЛЮЦИЯ"