Войти:  Facebook Google Twitter Vk Yandex Mail.ru
PrimaNota.ru - самый крупный в мире бесплатный архив песенных текстов, аккордов, табулатур и нот


Cure - Accuracy - текст песни

  • аккорды, текст

*****************************************************
*        The Cure - Accuracy (Bass tab)             *
*****************************************************
*  Tabbed by: Obi_alm (obiwankenobi.rol#gmail...)   *
*****************************************************
_____________________________________________________

Tunning: Standard (EADG)

Note: This tab can contain errors or missed notes,
      but it sounds good to me.
_____________________________________________________

* Main riff x2:

G------------------------|
D-----------2------------|
A---4--0h2h4-4---21-11-1-| x2
E------------------------|

G------------------------|
D-----------2------------|
A--24--0h2h4-4---21-11-1-|
E------------------------|

G------------------------|
D--2222--4---------------|
A---------444------------|
E---------------4-44-4---|

* Bridge: (Note: You can add some note in the middle of the pairs if you like.)

G-----------------------------------------------------------------------------|
D-----------------------------------------------------------------------------|
A-----------------------------------44-44--44-44--99-99--99-99----0000--2222--|
E--5-5-5-5~--77-77--77-77--4-4-4-4~-------------------------------------------|

* Main riff x1

* Bridge x1

* Main riff x1

* Interlude:

G-----------------------------------------------|
D--4444--2222--1111-1~--------------------------|
A-------------------------4444--2222--0000-0~---| x2
E-----------------------------------------------|

G---------------------------|
D---------------------------|
A---------------------------|
E--2222-2222-4444444444\0---|

* Main riff x2

* End:

G-----------|
D-----------|
A-----4-----|
E-----------|

   
https://primanota.ru/cure/accuracy-chords.htm

Привет, гитарист!

Тебе подарок от сайта PrimaNota.ru

Забрать подарок
ВАМ ПОДАРКИ ОТ ПРОЕКТА
"ГИТАРНАЯ РЕВОЛЮЦИЯ"