Войти:  Facebook Google Twitter Vk Yandex Mail.ru
PrimaNota.ru - самый крупный в мире бесплатный архив песенных текстов, аккордов, табулатур и нот


Crucis - Ironico Ser - бас-таба, видео

Печатать
Просмотров: 189
Лучшая metal-группа Петербурга

Ironico Ser


              (4 veces)
G|------------------------------------|
D|-----------6|7-8---8---9h10p9-------|
A|-7--7--7--7------------------9h10p9-|
E|------------------------------------|

G|--------------------------------------------------------------
D|-----------------14--14-14-14-14-14-14-14-14-14-14-14-14-14-14
A|-7------------------------------------------------------------
E|--------------------------------------------------------------

         (5 veces)                                                    \
?Muerte te haces?          ?estos?                                    |
G|------------------------|---------------------------------          |
D|------------------9-----|---------------------------------          |
A|-7---7-7---7--10-----10-|-7---7-7--7-7-7-7-9-9-10-10-12-12          |
E|------------------------|---------------------------------          |
                                                                      | Parte
       (2 veces)                                                      |   A
?en que no existen?      ?sueños?                                     |
G|----------------------|------------------------------------------   |
D|----------------------|--9---9---9---9---9---9---9---9-----------   |
A|-----------------7----|------------------------------------------   |
E|-5---5-5---5--8-----8-|-7---7---7---7---7---7---7---7---5|5|5|7--   |
                                                                      /

G|-----------------------7-8-9--9-12-11-9-7-9-7--------------
D|----------------7--8-9------------------------9-7-9--------
A|-7---7-7---7|10-------------------------------------10-9-10
E|-----------------------------------------------------------

Repite parte A. Despues:

      (3 veces)
G|------------------|-----------------
D|---2----5---------|---2----5--------
A|-3----------3--5--|-3----------3----
E|------------------|-----------------

G|-------------------------------------7-9-9-7-----------
D|------------------9------------7--9----------9-7-7-9---
A|-7---7-7---7--10-----10--7|10------------------------10
E|-------------------------------------------------------

?que ironia nena?
G|---------------------------------------------7---
D|------------------9-----------------------9---9--
A|-7---7-7---7--10-----10--7---7-7---7--10-------10
E|-------------------------------------------------

 la piedra fraterna?
G|--------------------------------------------------------
D|------------------9-------------------------------------
A|-7---7-7---7--10-----10--7---7-7-7---7-7-9-9-10-10-12-12
E|--------------------------------------------------------

        (2 veces)
?cae como en la lluvia?  ?invernal?
G|----------------------|------------------------------------------
D|----------------------|--9---9---9---9---9---9---9---9-----------
A|-----------------7----|------------------------------------------
E|-5---5-5---5--8-----8-|-7---7---7---7---7---7---7---7---5|5|5|7--

G|----------------------7--8-9---9-7-------------------------
D|----------------7-8-9--------------9-8-7-------------------
A|-7--7-7---7--10---------------------------10-9-10-9-10-9-10
E|-----------------------------------------------------------

G|-----------------------------------------------------------
D|------------------9----------------------------------------
A|-7---7-7---7--10-----10-9-10-7---7-7----7-7-9-9-10-10-12-12
E|-----------------------------------------------------------

G|--------------------------------------7---9-7--7----------
D|----------------------4-5-6-7--7-10-7---7--------10-9-10-9
A|---------------5-6-7--------------------------------------
E|-5---5-5---5-8--------------------------------------------

G|------------------------------------------
D|--9--9---9---9---9---9---9---9------------
A|------------------------------------------
E|-7--7---7---7---7---7---7---7---5|5|5|7---

2:08
G|--------------------------------------------------------------------------
D|---2----5------7---------5----7----------5-----------2----5--4--2---------
A|-3----------3--5----7---------------7--------3--5--3---------------5--3-2-
E|------------------8---------------8---------------------------------------

G|-----------------------------------------------------------------------------
D|-14--14|12--12|14--14|12--12|14--14|12--12|14|12-----------------------------
A|----------14------------14------------14--------14|12-------------12----14---
E|------------------------------------------------------15|12-14-15----15------


G|------------------------------------------------------------------------
D|-2--2--2--2--------------2--2--2--2-------------------------------------
A|-------------3--3--3--5--------------3--3--3--3--5--5--5--5--6--6--6--6-
E|------------------------------------------------------------------------

G|------------------------------------------------------------------------
D|-2--2--2--2--------------2--2--2--2--------------2--2--2--2--3--3--3--3-
A|-------------3--3--3--5--------------3--3--3--3-------------------------
E|------------------------------------------------------------------------

G|-----------------------------------------------------------------------------
D|-4--4--4--4-------------------2--2--2--2--------------2--2--2--2-------------
A|------------------------------------------3--3--3--3--------------3--3--3--3-
E|-------------3|3|3|4-4|4|4|5-------------------------------------------------

             (3 veces)
G|--------------------------------|--------------------------------------
D|--------------------------------|--------------------------------------
A|-7-7------7-7------7---6---7-7--|-7-7------7-7------7---6---7-7-7-7-7-7
E|--------------------------------|--------------------------------------

G|------------------------------------------------
D|-2--2--2--2--------------2--2--2--2------------- Parte
A|-------------3--3--3--5--------------3--3--3--3-   B
E|------------------------------------------------

G|------------------------------4|4--4-4|4--4-----4-
D|-2-----------3-----2------------------------------
A|----5--3--0-----5-----2-----------------2----2----
E|--------------------------------------------------

Repite parte B. Despues:

G|------------------------------4|4|4|4|4|4|4|4|4|4|4|4|4|4|4|4|4|4-
D|-2-----------3-----2----------------------------------------------
A|----5--3--0-----5-----2-------------------------------------------
E|------------------------------------------------------------------

Repite parte B. Despues:

G|---------------------------------(4)------------
D|-2-----------3-----2----------------------------
A|----5--3--0-----5-----2-------------------------
E|------------------------------------------------

3:41
G|----------------------------------------------------------4------------
D|-2------2-------------------------------------2--5-----4---------------
A|----2-2---5-3----------3------3--0-0-0--2--3--------2--------3--3-3-3-3
E|---------------3-3-3-3----3-3------------------------------------------

G|----------------------------------------------------------------------
D|--------------------------4-----9-----------------------------9-------
A|-2--2-2-2-2-0--0-0-0-0-2-----2/-7-----------------------------7-------
E|----------------------------------------------------------------------


     /: slide up (?arrastrar? hacia adelante)
     p: pull off (ligado hacia atras)
     h: hammer on (ligado)
 x |x : tocar las dos notas consecutivamente rápido por Ej. 4|4
   (x): nota fantasma

Ironico ser (Gustavo Montesano)

Muerte te haces precisa
en dias como estos
en que no existen sueños.

Que ironia, nena
la piedra fraterna
cae como la lluvia invernal.
Добавлено: 03.12.2014
Другие материалы по этой песне:

Страница создана 03.12.2014
https://primanota.ru/crucis/ironico-ser-chords.htm

Привет, гитарист!

Тебе подарок от сайта PrimaNota.ru

Забрать подарок
ВАМ ПОДАРКИ ОТ ПРОЕКТА
"ГИТАРНАЯ РЕВОЛЮЦИЯ"