Войти:  Facebook Google Twitter Vk Yandex Mail.ru
PrimaNota.ru - самый крупный в мире бесплатный архив песенных текстов, аккордов, табулатур и нот


Cramps - Cant Find My Mind - табы, бас-таба

Печатать
Лучшая metal-группа Петербурга

Cant Find My Mind

  • аккорды, текст

Авторы: Lux Interior, Ivy Rorschach

[Intro]

  N.C.
e|------------------------|------------------------|------------------------|------------------------|
B|------------------------|------------------------|------------------------|------------------------|
G|------------------------|------------------------|------------------------|------------------------|
D|------------------------|------------------------|------------------------|------------------------|
A|----------0--1--1--0----|----------0--1--1--0----|----------0--1--1--0----|----------0--1--1--0----|
E|-0--0--3--------------3-|-0--0--3--------------3-|-0--0--3--------------3-|-0--0--3--------------3-|


[Verse 1]

e|------------------------|------------------------|------------------------|------------------------|
B|------------------------|------------------------|------------------------|------------------------|
G|------------------------|------------------------|------------------------|------------------------|
D|------------------------|------------------------|------------------------|------------------------|
A|----------0--1--1--0----|----------0--1--1--0----|----------0--1--1--0----|----------0--1--1--0----|
E|-0--0--3--------------3-|-0--0--3--------------3-|-0--0--3--------------3-|-0--0--3--------------3-|
       I've got a black skin suit                         Alligator shoes

e|------------------------|------------------------|------------------------|------------------------|
B|------------------------|------------------------|------------------------|------------------------|
G|------------------------|------------------------|------------------------|------------------------|
D|------------------------|----------0--1--1--0----|----------0--1--1--0----|------------------------|
A|----------0--1--1--0----|-0--0--3--------------3-|-0--0--3--------------3-|----------0--1--1--0----|
E|-0--0--3--------------3-|------------------------|------------------------|-0--0--3--------------3-|
       Now I found success                                 And I paid my dues

e|------------------------|------------------------|------------------------|------------------------|
B|------------------------|------------------------|------------------------|------------------------|
G|------------------------|------------------------|------------------------|------------------------|
D|------------------------|-4--4--6--6--4--4--6--6-|-2----------------------|------------------------|
A|----------0--1--1--0----|-2--2--2--2--2--2--2--2-|-0----------------------|----------0--1--1--0----|
E|-0--0--3--------------3-|------------------------|------------------------|-0--0--3--------------3-|
      Well everything is fine                              But I can't find my mind


[Verse 2]

e|------------------------|------------------------|------------------------|------------------------|
B|------------------------|------------------------|------------------------|------------------------|
G|------------------------|------------------------|------------------------|------------------------|
D|------------------------|------------------------|------------------------|------------------------|
A|----------0--1--1--0----|----------0--1--1--0----|----------0--1--1--0----|----------0--1--1--0----|
E|-0--0--3--------------3-|-0--0--3--------------3-|-0--0--3--------------3-|-0--0--3--------------3-|
      I've got a crystal ball                               And a divining rod

e|------------------------|------------------------|------------------------|------------------------|
B|------------------------|------------------------|------------------------|------------------------|
G|------------------------|------------------------|------------------------|------------------------|
D|------------------------|----------0--1--1--0----|----------0--1--1--0----|------------------------|
A|----------0--1--1--0----|-0--0--3--------------3-|-0--0--3--------------3-|----------0--1--1--0----|
E|-0--0--3--------------3-|------------------------|------------------------|-0--0--3--------------3-|
       Magnifying glass                                   And a pack of dogs

e|------------------------|------------------------|------------------------|------------------------|
B|------------------------|------------------------|------------------------|------------------------|
G|------------------------|------------------------|------------------------|------------------------|
D|------------------------|-4--4--6--6--4--4--6--6-|-2----------------------|------------------------|
A|----------0--1--1--0----|-2--2--2--2--2--2--2--2-|-0----------------------|----------0--1--1--0----|
E|-0--0--3--------------3-|------------------------|------------------------|-0--0--3--------------3-|
       I looked up my sign                               But I can't find my mind


[Verse 3]

e|------------------------|------------------------|------------------------|------------------------|
B|------------------------|------------------------|------------------------|------------------------|
G|------------------------|------------------------|------------------------|------------------------|
D|------------------------|------------------------|------------------------|------------------------|
A|----------0--1--1--0----|----------0--1--1--0----|----------0--1--1--0----|----------0--1--1--0----|
E|-0--0--3--------------3-|-0--0--3--------------3-|-0--0--3--------------3-|-0--0--3--------------3-|
       I called the law                                  Hired a private eye

e|------------------------|------------------------|------------------------|------------------------|
B|------------------------|------------------------|------------------------|------------------------|
G|------------------------|------------------------|------------------------|------------------------|
D|------------------------|----------0--1--1--0----|----------0--1--1--0----|------------------------|
A|----------0--1--1--0----|-0--0--3--------------3-|-0--0--3--------------3-|----------0--1--1--0----|
E|-0--0--3--------------3-|------------------------|------------------------|-0--0--3--------------3-|
      Turned in an APB                                   With the FBI

e|------------------------|------------------------|------------------------|------------------------|
B|------------------------|------------------------|------------------------|------------------------|
G|------------------------|------------------------|------------------------|------------------------|
D|------------------------|-4--4--6--6--4--4--6--6-|-2----------------------|------------------------|
A|----------0--1--1--0----|-2--2--2--2--2--2--2--2-|-0----------------------|----------0--1--1--0----|
E|-0--0--3--------------3-|------------------------|------------------------|-0--0--3--------------3-|
        No matter what I do                             I still can't find a clue            


[Instrumental Break]

e|------------------------|------------------------|------------------------|------------------------|
B|------------------------|------------------------|------------------------|------------------------|
G|------------------------|-------0--2--3--3--2--0-|-------0--2--3--3--2--0-|-------0--2--3--3--2--0-|
D|------------------------|-2--2-------------------|-2--2-------------------|-2--2-------------------|
A|----------0--1--1--0----|------------------------|------------------------|------------------------|
E|-0--0--3--------------3-|------------------------|------------------------|------------------------|
       That's right                                     

e|------------------------|------------------------|------------------------|------------------------|
B|------------------------|-------1--3--4--4--3--1-|-------1--3--4--4--3--1-|------------------------|
G|-------0--2--3--3--2--0-|-2--2-------------------|-2--2-------------------|-------0--2--3--3--2--0-|
D|-2--2-------------------|------------------------|------------------------|-2--2-------------------|
A|------------------------|------------------------|------------------------|------------------------|
E|------------------------|------------------------|------------------------|------------------------|

e|------------------------|------------------------|------------------------|------------------------|
B|------------------------|-0--0--0--0--0--0--0--0-|------------------------|------------------------|
G|-------0--2--3--3--2--0-|------------------------|-2----------------------|------------------------|
D|-2--2-------------------|------------------------|------------------------|------------------------|
A|------------------------|------------------------|------------------------|----------0--1--1--0----|
E|------------------------|------------------------|------------------------|-0--0--3--------------3-|

e|--------------------------|
B|--------------------------|
G|--------------------------|
D|--------------------------|
A|-----------0--1--1--0-----|
E|--0--0--3--------------3--|


[Verse 4]

e|------------------------|------------------------|------------------------|------------------------|
B|------------------------|------------------------|------------------------|------------------------|
G|------------------------|------------------------|------------------------|------------------------|
D|------------------------|------------------------|------------------------|------------------------|
A|----------0--1--1--0----|----------0--1--1--0----|----------0--1--1--0----|----------0--1--1--0----|
E|-0--0--3--------------3-|-0--0--3--------------3-|-0--0--3--------------3-|-0--0--3--------------3-|
       I don't know what to think                        I've looked every place

e|------------------------|------------------------|------------------------|------------------------|
B|------------------------|------------------------|------------------------|------------------------|
G|------------------------|------------------------|------------------------|------------------------|
D|------------------------|----------0--1--1--0----|----------0--1--1--0----|------------------------|
A|----------0--1--1--0----|-0--0--3--------------3-|-0--0--3--------------3-|----------0--1--1--0----|
E|-0--0--3--------------3-|------------------------|------------------------|-0--0--3--------------3-|
        Where is the missing link?                       That was behind my face?      

e|------------------------|------------------------|------------------------|------------------------|
B|------------------------|------------------------|------------------------|------------------------|
G|------------------------|------------------------|------------------------|------------------------|
D|------------------------|-4--4--6--6--4--4--6--6-|-2----------------------|------------------------|
A|----------0--1--1--0----|-2--2--2--2--2--2--2--2-|-0----------------------|----------0--1--1--0----|
E|-0--0--3--------------3-|------------------------|------------------------|-0--0--3--------------3-|
      There's only one thing to do                       

    E
e|--0------------------------|
B|--0------------------------|
G|--1------------------------|
D|--2------------------------|
A|--2------------------------|
E|--0------------------------|
   
https://primanota.ru/cramps/cant-find-my-mind-chords.htm

Привет, гитарист!

Тебе подарок от сайта PrimaNota.ru

Забрать подарок
ВАМ ПОДАРКИ ОТ ПРОЕКТА
"ГИТАРНАЯ РЕВОЛЮЦИЯ"