» 
 » 
The Black Godess Rises



Cradle Of Filth - The Black Godess Rises - бас-таба

Чайковский в рок-аранжировке! Очень необычно, послушай!
tabed by jonathan henson if you dont like it i hate you

1/s = 1st string
2/s = 2ed string
3/s = 3ed string
4/s = 4th string

intro
1/s0---2-3-1-----| x4
2/s----------3-1-|
3/s--------------|
4/s--------------|

1/s0---4-5-3-----| x2
2/s--------------|
3/s--------------|
4/s--------------|

1/s0---2-3-1-----| x2
2/s--------------|
3/s--------------|
4/s--------------|

bass thing
1/s00--00--00--003543--| x2
2/s--------------------|
3/s--------------------|
4/s--------------------|

1/s23-000-23-000-23-0003543-|
2/s-------------------------|
3/s-------------------------|
4/s-------------------------|

course 1
1/s--00--00--00----00---00-4543--| x2
2/s5---5---5---765----5----------|
3/s------------------------------|
4/s------------------------------|
course 2
1/s--00000000000-----00000-4543x2-|
2/s5-------------765--------------|
3/s-------------------------------|
4/s-------------------------------|

next part 1
1/s-------------------------------------| x1
2/s44444444-33333333-22222222-11111111--|
3/s-------------------------------------|
4/s-------------------------------------|
next part 2
1/s-------------------------------------| x1
2/s44444444-33333333-22222222-00000000--|
3/s-------------------------------------|
4/s-------------------------------------|

1/s-------------------------------------| x1
2/s44444444-33333333-22222222-11111111--|
3/s-------------------------------------|
4/s-------------------------------------|

1/s-------------------------------------|
2/s44444444-33333333-22222222-00000000--| x1
3/s-------------------------------------|
4/s-------------------------------------|

1/s0----3210---2---0232-3210----------| x3
2/s-----------------------------------|
3/s-----------------------------------|
4/s-----------------------------------|

1/s3----5----7------------------------| x4
2/s-----------------------------------|
3/s-----------------------------------|
4/s-----------------------------------|

1/s3----5-----7--------5-5-5-5--------|
2/s-----------------------------------|
3/s-----------------------------------|
4/s-----------------------------------|

1/s0-0-0-0-0-0-0-0-0-0-0-0-0-0-0-0-0-0-0-0-0--| x7
2/s-------------------------------------------|
3/s-------------------------------------------|
4/s-------------------------------------------|

course 1
course 2
next part 1
next part 2
intro
bass thing

good luck most of this i learned by my guitarest matt and the rest i leared by ear so 
fun with it ok i was mad that it wasnt tabed allready so i did it well like i said have 
with it.   

Cradle Of Filth - The Black Godess Rises - ноты

(включить)
Другие материалы по этой песне:
  • Аккорды, текст

https://primanota.ru/cradle-of-filth/the-black-godess-rises-chords.htm

Привет, гитарист!

Тебе подарок от сайта PrimaNota.ru

Забрать подарок
ВАМ ПОДАРКИ ОТ ПРОЕКТА
"ГИТАРНАЯ РЕВОЛЮЦИЯ"