» 
 » 
Right Wing Of The Garden Triptych



Cradle Of Filth - Right Wing Of The Garden Triptych - табы

Чайковский в рок-аранжировке! Очень необычно, послушай!
-------------------------------------------------------------------------------
        Right Wing Of The Garden Triptych(Solo) - Cradle Of Filth
-------------------------------------------------------------------------------
Tabbed by: Obsimyx                                               Tuning: Drop C

4:37
d|-15~----16~--18~--14~--14-15-16-15-14-13-------------16-15-14-13-------------------------------------|
A|-x------x----x----x----------------------16-15-14-13-------------16-15-14-13-------------------------|
F|-x------x----x----x----------------------------------------------------------16-15-14-13-------------|
C|-----------------------------------------------------------------------------------------16-15-14-13-|
G|-----------------------------------------------------------------------------------------------------|
C|-----------------------------------------------------------------------------------------------------|

4:42
d|----------7-10-7----------------7-10-7---------------5-8-5---------------5-8-5----------|
A|--------8--------8------------8--------8-----------6-------6-----------6-------6--------|
F|------7------------7--------7------------7-------5-----------5-------5-----------5------|
C|----9----------------9----9----------------9---7---------------7---7---------------7----|
G|-10--------------------10--------------------8-------------------8-------------------12-|
C|----------------------------------------------------------------------------------------|

d|--------9-12-9--------------------9-12-9---------------------12-15-12----------12-18-15-------------|
A|-----10--------10--------------10--------10---------------13----------13----13----------16----------|
F|---9--------------9----------9--------------9----------12----------------12----------------15-------|
C|11------------------11----11------------------11----14----------------------------------------17----|
G|-----------------------12------------------------15----------------------------------------------15-|
C|----------------------------------------------------------------------------------------------------|

d|---------12-15-12----------------------15-18-15----------------------15-18-15-------------|
A|------13----------13----------------16----------16----------------16----------16----------|
F|---12----------------12----------15----------------15----------15----------------15-------|
C|14----------------------14----17----------------------17----17----------------------17----|
G|---------------------------18----------------------------18----------------------------20-|
C|------------------------------------------------------------------------------------------|

d|---------17-20-17----------------------1720242017--------------|
A|------18----------18----------------18------------18-----------|
F|---17----------------17----------17------------------17--------|
C|19----------------------19----19------------------------19-----|
G|---------------------------20------------------------------20~-|
C|---------------------------------------------------------------|
                                             t

4:56
d|-15~----16~--18~--14~--14-15-16-15-14-13-------------16-15-14-13-------------------------------------|
A|-x------x----x----x----------------------16-15-14-13-------------16-15-14-13-------------------------|
F|-x------x----x----x----------------------------------------------------------16-15-14-13-------------|
C|-----------------------------------------------------------------------------------------16-15-14-13-|
G|-----------------------------------------------------------------------------------------------------|
C|-----------------------------------------------------------------------------------------------------|


************************************

| /   slide up
| \   slide down
| h   hammer-on
| p   pull-off
| ~   vibrato
| +   harmonic
| x   Mute note/Dead note
| b   Bend
| pb  Pre-bend
| br  Bend release
| pbr Pre-bend release
| brb Bend release bend
| t   Tap

************************************   

Cradle Of Filth - Right Wing Of The Garden Triptych - ноты

(включить)
Другие композиции этого автора:
Другие материалы по этой песне:

https://primanota.ru/cradle-of-filth/right-wing-of-garden-triptych-chords.htm

Привет, гитарист!

Тебе подарок от сайта PrimaNota.ru

Забрать подарок
ВАМ ПОДАРКИ ОТ ПРОЕКТА
"ГИТАРНАЯ РЕВОЛЮЦИЯ"