» 
 » 
Bleeding In Heaven



Cradle Of Filth - Bleeding In Heaven - табы

Чайковский в рок-аранжировке! Очень необычно, послушай!
  • аккорды, текст
Band: Cradle of Filth
Album: Orgiastic Pleasures (demo)
Song: Bleeding in heaven

-------------|
-------------|
-------------|
-------------|
-------1-0---|
-9-8-7-1-0---|X3

---------------------------------------|
---------------------------------------|
---------------------------------------|
---------------------------------------|
-------1-0-0-0-0-0-0-0-0-0-0-0-0-0-0---|
-9-8-7-1-0-0-0-0-0-0-0-0-0-0-0-0-0-0---|X3
         pm.........................

-------------------------|
-------------------------|
-------------------------|
-------------------------|
-0---3---6---9----12-----|
---1---4---7---10----13--|
             pm...

------------------------------|
------------------------------|
------------------------------|
------------------------------|
-0-0-0-0-0-0-0-0-0-0-0-0-0-0--|
-0-0-0-0-0-0-0-0-0-0-0-0-0-0--|
 pm.........................

-------------------------|
-------------------------|
-------------------------|
-------------------------|
-0---3---6---9----12-----|
---1---4---7---10----13--|
             pm...

------------------------------|
------------------------------|
------------------------------|
------------------------------|
-0-0-0-0-0-0-0-0-0-0-0-0-0-0--|
-0-0-0-0-0-0-0-0-0-0-0-0-0-0--|
 pm.........................

-------------------------|
-------------------------|
-------------------------|
-------------------------|
-0---3---6---9----12-----|
---1---4---7---10----13--|
             pm...

------------------------------|
------------------------------|
------------------------------|
------------------------------|
-0-0-0-0-0-0-0-0-0-0-0-0-0-0--|
-0-0-0-0-0-0-0-0-0-0-0-0-0-0--|
 pm.........................

-------------------------|
-------------------------|
-------------------------|
-------------------------|
-0---3---6---9----12-----|
---1---4---7---10----13--|
             pm...

-------------------------|
-------------------------|
-------------------------|
-------------------------|
-0---3---6---9----12-----|
---1---4---7---10----13--|
             pm...

-------------------------|
-------------------------|
-------------------------|
-------------------------|
-0---3---6---9----12-----|
---1---4---7---10----13--|
             pm...

-----------------------------------------------|
-----------------------------------------------|
-----------------------------------------------|
-----------------------------------------------|
------------------------------------33333333---|
-00-0-1-0-0-6-66-0-0-1-0-00-0-1-0-0-33333333---|
                                   pm......

-----------------------------------------------|
-----------------------------------------------|
-----------------------------------------------|
-----------------------------------------------|
-00-0-1-0-0-6-66-0-0-1-0-00-0-1-0-0-33333333---|
-00-0-1-0-0-6-66-0-0-1-0-00-0-1-0-0-33333333---|X3
                                    pm......

-------------------|
-------------------|
-------------------|
---------5---------|
-0-3-1-0-3-3-0-3---|
-0-3-1-0---3-0-3---|X3

---------------|
---------------|
---------------|
---------2-----|
-0-3-1-0-0-1---|
-0-3-1-0---1---|

-------------------|
-------------------|
-------------------|
---------5---------|
-0-3-1-0-3-3-0-3---|
-0-3-1-0---3-0-3---|X3

---------------|
---------------|
---------------|
---------2-----|
-0-3-1-0-0-1---|
-0-3-1-0---1---|

-------------------|
-------------------|
-------------------|
---------5---------|
-0-3-1-0-3-3-0-3---|
-0-3-1-0---3-0-3---|X3

---------------|
---------------|
---------------|
---------2-----|
-0-3-1-0-0-1---|
-0-3-1-0---1---|

-------------------|
-------------------|
-------------------|
---------5---------|
-0-3-1-0-3-3-0-3---|
-0-3-1-0---3-0-3---|X3

---------------|
---------------|
---------------|
---------2-----|
-0-3-1-0-0-1---|
-0-3-1-0---1---|

-----------------------------------------------|
-----------------------------------------------|
-----------------------------------------------|
-----------------------------------------------|
-00-0-1-0-0-6-66-0-0-1-0-00-0-1-0-0-33333333---|
-00-0-1-0-0-6-66-0-0-1-0-00-0-1-0-0-33333333---|X4
                                    pm......

-------------------|
-------------------|
-------------------|
---------5---------|
-0-3-1-0-3-3-0-3---|
-0-3-1-0---3-0-3---|X3

---------------|
---------------|
---------------|
---------2-----|
-0-3-1-0-0-1---|
-0-3-1-0---1---|

-------------------|
-------------------|
-------------------|
---------5---------|
-0-3-1-0-3-3-0-3---|
-0-3-1-0---3-0-3---|X3

---------------|
---------------|
---------------|
---------2-----|
-0-3-1-0-0-1---|
-0-3-1-0---1---|

-------------------|
-------------------|
-------------------|
---------5---------|
-0-3-1-0-3-3-0-3---|
-0-3-1-0---3-0-3---|X3

---------------|
---------------|
---------------|
---------2-----|
-0-3-1-0-0-1---|
-0-3-1-0---1---|

-------------------|
-------------------|
-------------------|
---------5---------|
-0-3-1-0-3-3-0-3---|
-0-3-1-0---3-0-3---|X3

---------------|
---------------|
---------------|
---------2-----|
-0-3-1-0-0-1---|
-0-3-1-0---1---|

-------------------|
-------------------|
-------------------|
---------5---------|
-0-3-1-0-3-3-0-3---|
-0-3-1-0---3-0-3---|X3

---------------|
---------------|
---------------|
---------2-----|
-0-3-1-0-0-1---|
-0-3-1-0---1---|

--------------------------------------------------------|
--------------------------------------------------------|
--------------------------------------------------------|
--------------------------------------------------------|
-10-10-101010----6-6-666----5-5-555----65-55-65-55------|
-10-10-101010-X2-6-6-666-X2-5-5-555-X2-65-55-65-55------|X4
 pm..........    .......    .......        ..     ..

-------------------------------|
-------------------------------|
-------------------------------|
-3-----2-----3-----2-----------|
-3-3-3-2-3-3-3-3-3-2-3-3-1-1---|
---3-3---3-3---3-3---3-3-1-1---|

-------------------------------|
-------------------------------|
-------------------------------|
-3-----2-----3-----2-----------|
-3-3-3-2-3-3-3-3-3-2-3-3-6-6---|
---3-3---3-3---3-3---3-3-6-6---|

-------------------------------|
-------------------------------|
-------------------------------|
-3-----2-----3-----2-----------|
-3-3-3-2-3-3-3-3-3-2-3-3-1-1---|
---3-3---3-3---3-3---3-3-1-1---|

-------------------------------|
-------------------------------|
-------------------------------|
-3-----2-----3-----2-----------|
-3-3-3-2-3-3-3-3-3-2-3-3-6-6---|
---3-3---3-3---3-3---3-3-6-6---|

-------------------------------|
-------------------------------|
-------------------------------|
-3-----2-----3-----2-----------|
-3-3-3-2-3-3-3-3-3-2-3-3-1-1---|
---3-3---3-3---3-3---3-3-1-1---|

-------------------------------|
-------------------------------|
-------------------------------|
-3-----2-----3-----2-----------|
-3-3-3-2-3-3-3-3-3-2-3-3-6-6---|
---3-3---3-3---3-3---3-3-6-6---|

-------------------------------|
-------------------------------|
-------------------------------|
-3-----2-----3-----2-----------|
-3-3-3-2-3-3-3-3-3-2-3-3-1-1---|
---3-3---3-3---3-3---3-3-1-1---|

-------------------------------|
-------------------------------|
-------------------------------|
-3-----2-----3-----2-----------|
-3-3-3-2-3-3-3-3-3-2-3-3-6-6---|
---3-3---3-3---3-3---3-3-6-6---|

-----------------------------------------------|
-----------------------------------------------|
-----------------------------------------------|
-----------------------------------------------|
-00-0-1-0-0-6-66-0-0-1-0-00-0-1-0-0-33333333---|
-00-0-1-0-0-6-66-0-0-1-0-00-0-1-0-0-33333333---|X6
                                    pm......
4:56
---------|
---------|
---------|
-2-------|
-0---0---|
-----0---|X3

--------------|
--------------|
--------------|
--------------|
-1--0---------|
-1--0--141----|
    pm......
on slide trem pik

-------------|
-------------|
-------------|
-------------|
-------1-0---|
-9-8-7-1-0---|X3
let notes ring abit

---------------------------------------|
---------------------------------------|
---------------------------------------|
---------------------------------------|
-------1-0-0-0-0-0-0-0-0-0-0-0-0-0-0---|
-9-8-7-1-0-0-0-0-0-0-0-0-0-0-0-0-0-0---|X3
         pm.........................

-------------------------|
-------------------------|
-------------------------|
-------------------------|
-0---3---6---9----12-----|
---1---4---7---10----13--|
             pm...

------------------------------|
------------------------------|
------------------------------|
------------------------------|
-0-0-0-0-0-0-0-0-0-0-0-0-0-0--|
-0-0-0-0-0-0-0-0-0-0-0-0-0-0--|
 pm.........................

-------------------------|
-------------------------|
-------------------------|
-------------------------|
-0---3---6---9----12-----|
---1---4---7---10----13--|
             pm...

------------------------------|
------------------------------|
------------------------------|
------------------------------|
-0-0-0-0-0-0-0-0-0-0-0-0-0-0--|
-0-0-0-0-0-0-0-0-0-0-0-0-0-0--|
 pm.........................

-------------------------|
-------------------------|
-------------------------|
-------------------------|
-0---3---6---9----12-----|
---1---4---7---10----13--|
             pm...

------------------------------|
------------------------------|
------------------------------|
------------------------------|
-0-0-0-0-0-0-0-0-0-0-0-0-0-0--|
-0-0-0-0-0-0-0-0-0-0-0-0-0-0--|
 pm.........................

-------------------------|
-------------------------|
-------------------------|
-------------------------|
-0---3---6---9----12-----|
---1---4---7---10----13--|
             pm...

-------------------------|
-------------------------|
-------------------------|
-------------------------|
-0---3---6---9----12-----|
---1---4---7---10----13--|
             pm...

-------------------------|
-------------------------|
-------------------------|
-------------------------|
-0---3---6---9----12-----|
---1---4---7---10----13--|
             pm...

-----
-----
-----
--0--
--0--
--0--   

Cradle Of Filth - Bleeding In Heaven - ноты

(включить)
Другие материалы по этой песне:
  • Аккорды, текст

https://primanota.ru/cradle-of-filth/bleeding-in-heaven-chords.htm

Привет, гитарист!

Тебе подарок от сайта PrimaNota.ru

Забрать подарок
ВАМ ПОДАРКИ ОТ ПРОЕКТА
"ГИТАРНАЯ РЕВОЛЮЦИЯ"