» 
 » 
Rebel Heart



Corrs - Rebel Heart - табы

Чайковский в рок-аранжировке! Очень необычно, послушай!
Artist: CORRS, The
Song: REBEL HEART
Album: IN BLUE

Transcribed by: Chad Nini (chad_nini@yahoo.com)

This song is originally played on the violin but I
transcribed it to guitar. It also has a 
flute or something backing it up which just plays same
notes. You'll have to listen to the
song to get the rhythm. It is only played on the high
E string and B string.

Key:
/=slide up
\=slide down
p=pull off

Verse 1
E |-7p5-7/9----7p5-7/9-7p5-4-\2----0-0-7p5-7/9----7p5-
B |---------------------------------------------------

7/9-7p5-4-\2----0-|
------------------|

E |---2-5---4-7-7/10\9-------------2-5---4-7-7/-12-10--
B |-3-----5------------10-5-7--5-3-----5---------------

9-5-2--4----|
------------|

Chorus
| E |-5-4-5-0-5---5---|2X      |2X
| B |-----------3---2-|        |
|                              |
| E |-5-4-5-5-7-9--9/10\7-5-7| |
| B |------------------------| |

E |-9-10-12--14-12-9-5----7-9-10-9-5-0-7-|
B |--------------------------------------|

E |-9-10-12--17-12-9-5----15-14-10-5-10----15-14-10-5--
B |----------------------------------------------------

10-9-5-0-2-4|
------------|

Verse 2
E |-7p5-7/9----7p5-7/9-7p5-4-\2----0-0-7p5-7/9----7p5--
B |----------------------------------------------------

7/9-0-5-4-2--5-4-2-0-|
---------------------|

E |---2-5---4-7-7/10\9-------------2-5---4-7-7/12-10-9-
B |-3-----5------------10-5-7--5-3-----5---------------

5-2--4----|
----------|

Repeat Chorus 2x and fade out.

This should be right but If you can suggest any
changes, email me.
        

Corrs - Rebel Heart - ноты

(включить)
Другие материалы по этой песне:

https://primanota.ru/corrs/rebel-heart-chords.htm

Привет, гитарист!

Тебе подарок от сайта PrimaNota.ru

Забрать подарок
ВАМ ПОДАРКИ ОТ ПРОЕКТА
"ГИТАРНАЯ РЕВОЛЮЦИЯ"