» 
 » 
Queen Of Hollywood Live



Corrs - Queen Of Hollywood Live - табы

Чайковский в рок-аранжировке! Очень необычно, послушай!
This solo is from the live in geneva concert which is from the borrowed heaven tour


e -------------------------------3-2-2H3P2--------------10-----7H8P7-4B----|
b ---------------------------3-5-------------3-3S5--7-7-8----7-8-----------|
g ---0-----------------2-4-5-----------------------------------------------|
d -4---4-2-0-2-0-2-4-5-----------------------------------------------------|
a -------------------------------------------------------------------------|
e -------------------------------------------------------------------------|

E ------------------7-7-10-14-15-17-19-15-17--14-15-14-12-15-----|
B -7-8-7-----7-9-10----------------------------------------------|
G -------7-9-----------------------------------------------------|
D ---------------------------------------------------------------|
A ---------------------------------------------------------------|
E ---------------------------------------------------------------|

E -12-10-----------------------------------------------------------------|
B ------12S10-12----12----12-----------------5-3-0-----------------------|
G ---------------12----12--------------------------2-0-4-2-0-------------|
D ---------------------------7-5-----------------------------0-2-4-5-----|
A -------------------------------7-5-------------------------------------|
E -----------------------------------7-5-3-0-----------------------------|

E -------------3-3H5P3-0--5H7P5-0--7H9P7--0-10-12-14-15-17-14-19-----|
B -------5-7-7-------------------------------------------------------|
G ---5-7-------------------------------------------------------------|
D -7-----------------------------------------------------------------|
A -------------------------------------------------------------------|
E -------------------------------------------------------------------|

E -12-14-15-15-14-12-14-15-14-12--15-17-17-15-17-19---21B---|
B ----------------------------------------------------------|
G ----------------------------------------------------------|
D ----------------------------------------------------------|
A ----------------------------------------------------------|
E ----------------------------------------------------------|

E -15-15-13------------------------------------------------------------|
B ----------15-13-15-17-17-15-13-15-13---------------------------------|
G -------------------------------------14-12---------------------------|
D -------------------------------------------14-12-10------------------|
A ----------------------------------------------------12-10------------|
E ----------------------------------------------------------12-10-8----|

THE IT GOES INTO THE CHORUS WHICH IS

C , A, D, E

the end

so that is how u do the corrs solo 4 queen of hollywood

if u want me tab anymore of the corrs songs just email via

godisback4ever_17@hotmail.co.uk

chow 4 now

bye bye bye bye bye bye bye bye bye bye bye bye bye bye bye bye bye bye   

Corrs - Queen Of Hollywood Live - ноты

(включить)
Другие композиции этого автора:
Другие материалы по этой песне:
  • Аккорды, текст

https://primanota.ru/corrs/queen-of-hollywood-live-chords.htm

Привет, гитарист!

Тебе подарок от сайта PrimaNota.ru

Забрать подарок
ВАМ ПОДАРКИ ОТ ПРОЕКТА
"ГИТАРНАЯ РЕВОЛЮЦИЯ"