Войти:  Facebook Google Twitter Vk Yandex Mail.ru
PrimaNota.ru - самый крупный в мире бесплатный архив песенных текстов, аккордов, табулатур и нот


Control Machete - Mexican Curios - аккорды и текст, видео

Печатать
Просмотров: 103
Лучшая metal-группа Петербурга

Mexican Curios

  • аккорды и текст
Тональность: 
0
Проще! Аппликатуры

Mexican Curios
Control Machete

b= bend		h= hammer
r= release	p= pull
/= slide up	x= palm mute
\= slide down	
~= vibrato

Para tocar esta cancion tienes que afinar la sexta cuerda como D (re)

Verso: (asi se toca casi toda la canción, solo hay algunas variaciones 
       que no son dificiles de sacar)

E|-------------------------------------------------|
B|-------------------------------------------------|
G|-------------------------------------------------|
D|-x-x-3-3--0--x-x-3-3--0--x-x-3-3--5--x-x-5-x-x-6-|
A|-x-x-3-3--0--x-x-3-3--0--x-x-3-3--5--x-x-5-x-x-6-|
D|-x-x-3-3--0--x-x-3-3--0--x-x-3-3--5--x-x-5-x-x-6-|

Coro:

E|---------------------------------------------|
B|---------------------------------------------|
G|---------------------------------------------|
D|--0-------3-------2-------0-0-3h5-0-0-0-5-6--|
A|--0-------3-------2-------0-0-3h5-0-0-0-5-6--|
D|--0-------3-------2-------0-0-3h5-0-0-0-5-6--|

Si tienen comentarios, correcciones o dudas escribanme
Добавлено: 19.11.2014
Другие материалы по этой песне:
  • Аккорды и текст

Страница создана 11.05.2012
https://primanota.ru/control-machete/mexican-curios-chords.htm

Привет, гитарист!

Тебе подарок от сайта PrimaNota.ru

Забрать подарок
ВАМ ПОДАРКИ ОТ ПРОЕКТА
"ГИТАРНАЯ РЕВОЛЮЦИЯ"