Войти:  Facebook Google Twitter Vk Yandex Mail.ru
PrimaNota.ru - самый крупный в мире бесплатный архив песенных текстов, аккордов, табулатур и нот


Control Machete - Ileso - текст песни, таба, видео

Печатать
Просмотров: 126
Лучшая metal-группа Петербурга

Ileso

  • аккорды и текст

La verdad es que no tengo el disco y como la saque de como me acuerdo que va,
el tono podria ser algo mas alto o bajo, pero enfin...  Disfrutenla.

Para los tiempos van a tener que escuchar la cancion.
Lo primero que se toca va asi.

e|----------6-6-6----9--9--9------13-13--
B|--6-6-6---6-6-6----6--6--6------11-11--
G|--6-6-6--------------------------------
D|---------------------------------------
A|---------------------------------------
E|---------------------------------------

Despues toca esto

e|-----------------------
B|-----------------------
G|-----------------------
D|-----------------------
A|----6666----4444---3---
E|-----------------------

Lo repites 1,232,169 veces y acabaste la cancion.  No recuerdo si hay
otra parte diferente (si la hay no sean huevones y saquenla ustedes).  

Si alguien sabe donde bajar el mp3 de esta cancion, favor de mandarme la
direccion a : edwingc@ y se los agradeceria mucho.

¨Si las mujeres fueran buenas, Dios tendria una...¨
Добавлено: 28.11.2014
Другие материалы по этой песне:
  • Аккорды и текст

Страница создана 01.07.2012
https://primanota.ru/control-machete/ileso-chords.htm

Привет, гитарист!

Тебе подарок от сайта PrimaNota.ru

Забрать подарок
ВАМ ПОДАРКИ ОТ ПРОЕКТА
"ГИТАРНАЯ РЕВОЛЮЦИЯ"