Войти:  Facebook Google Twitter Vk Yandex Mail.ru
PrimaNota.ru - самый крупный в мире бесплатный архив песенных текстов, аккордов, табулатур и нот


Conquistando Fronteras - Hacedor De Milagros - табы, видео

Печатать
Лучшая metal-группа Петербурга

Hacedor De Milagros

  • аккорды и текст

HOLA QUE TAL HERMANOS BUENO AQUI LES DEJO ESTA CANCION
QUE ESTA DE BENDICION Y TAMBIN VI QUE MUCHOS LA ABIAN PEDIDO

CUALQUIER CONCION QUE QUIERAN MELA PUEDEN PEDIR AMI
MAIL ( vago_pech@ )


INTRO; Cm - G  - G# - Fm - D# - G


  Cm       G       Cm          G
Espero en Ti, Para Mi Vida Cambiar
    G#                Fm         D#         G
Cuando Viene Tu Rio Transformado Soy OOOOOUUUOOH
        Cm   G        Cm       G
Solo un toooooque neseciiiiiiiitooo
   G#               Fm
Tengo Una Herida & yo estoy aquí
      D#                    G
en busca de la mano del que hace milagros


CORO

Cm    G           Cm       G
Saaaanto, Tu Eres Saaaaaaanto
      G#         Fm      D#       G
Quien Fue, Quien Es, & Quien Vendrááááá....
        Cm     G
Tu Eres Saaaaanto
        Cm    G
Tu Eres Saaaanto
  G#       Fm
Salvador, Sanador
  D#                        G
Estoy Ante los pies del hacedor de Milagros

Cm - G  - G# - Fm - D# - G

   Cm   G
Susténtame
       Cm      G
Pon Tu Vida En Mi
     G#         Fm
Agua Viva Queme Mientras
              D#          G
Transformado Soy ooooooouooohh


CORO:

Cm    G           Cm       G
Saaaanto, Tu Eres Saaaaaaanto
      G#         Fm      D#       G
Quien Fue, Quien Es, & Quien Vendrááááá....
        Cm     G
Tu Eres Saaaaanto
        Cm    G
Tu Eres Saaaanto
  G#       Fm
Salvador, Sanador
  D#                        G
Estoy Mirando el rostro del que ase  Milagros

solo;G#-Fm-A#-D#-C-C/E-Fm7-D#-A#7-Gm-G7

e|-------------------------------------------------------|
B|-------------------------------------------------------|
G|--5-5/13--5-3-5-5/13--10-10/15------------13-12-10-8---|
D|--------------------------------12-13-15---------------|
A|-------------------------------------------------------|
E|-------------------------------------------------------|

e|-------------------------------------------------------|
B|-------------------------------------------------------|
G|--9-10-12-10-12/15-13-12-10----------------------------|
D|------------------------------12-13/15-13-15-----------|
A|-------------------------------------------------------|
E|-------------------------------------------------------|


e|-------------------------------------------------------|
B|-------------------------------------------15-16-15----|
G|-----------5-4-5-----8-7-8-13-12-13-12-----------------|
D|-------------------------------------------------------|
A|-------------------------------------------------------|
E|-------------------------------------------------------|

CORO:
                      OJO


BUENO ESO ES TODO, JAJAAJAJ ESTA CONCION ME COSTO MEDIA MADRUGADA
LA CONCION ESTA SUPER LOS ACORDES SON IGUALES COMO LA DE CONQUISTANDO
FRONTERAS OSEA AL 100% PERO EL SOLO ESTA AL 90% QUE EL ORIGUINAL SOLO
LES RECOMIENDO QUE USEN MUY VIEN SU PEDALERA Y EN CUALQUIER TIPO
DE DISTORCION USEN PROCUREN METER( DELAY ) PARA QUE SE ESCUCHE PADRE
BUENO ESO ES TODO

Y SALUDOS AL GRUPO NATHA DE SN JUAN ZUMPANGO Y ALA IGLESIA SAMARITANO
DE LA PENCIL D.F Y LA IGLE LA HERMOSA DE COACOTLA COSOLEACAQUE VERCRZ

 chao nos vemos ASI NO OLVIDEN CALIFICARME   
Другие материалы по этой песне:
  • Аккорды и текст

https://primanota.ru/conquistando-fronteras/hacedor-de-milagros-chords.htm

Привет, гитарист!

Тебе подарок от сайта PrimaNota.ru

Забрать подарок
ВАМ ПОДАРКИ ОТ ПРОЕКТА
"ГИТАРНАЯ РЕВОЛЮЦИЯ"