Войти:  Facebook Google Twitter Vk Yandex Mail.ru
PrimaNota.ru - самый крупный в мире бесплатный архив песенных текстов, аккордов, табулатур и нот


Conquistando Fronteras - En Tu Presencia - аккорды и текст, видео

Печатать
Лучшая metal-группа Петербурга

En Tu Presencia

  • аккорды и текст
Тональность: 
0
Проще! Аппликатуры

En Tu Presencia
Conquistando Fronteras
intro
electrica aki le pueden poner delay
e--14-12-12-10--12-10-14-12--12-10-14-12---12-10-14-10---|
B------------10-----------10-----------10-------------10-|

e------10-12--------|12-10-14-10--12-10-14-10--12-10-14-10---|
B-12-14-------------|-----------10-----------10-----------10-|
G------------12-11--|----------------------------------------|


e------10-12--------|
B-12-14-------------|
G------------12-11--|

(el verso en con puro teclado)


D
estoy en tus manos alegre estoy
Bm                    G
todo temor desvanesera señor
         D
en tu presencia

D
todos mis miedos no brillan mas
Bm                   G
cada corona a ti rendire
         D
en tu presencia

PRECORO
Bm          A                   G
tiembla el cielo al ber tu grandeza
Bm        A                   G
reynos y reyes se asombran de ti

CORO
         D                A
en tu presencia nos consumes
          Bm        A                    G
en tu presencia el sielo y la tierra uno son
         D              A
en tu presencia renuevas todo
         Bm     A                  G
en tu presencia todo se postra ante ti

(aki ba el intro de nuebo)

tonos del intro D Bm G

VERSOS
PRECORO
CORO//
SOLO

e-----------------|----------------------------|
B-----------------|---------------------7-10-7-|
G------------7--7-|-9/11--9/6-6------7-7-------|
D-5/7-7-7-7-7-----|------------9--7-9----------|
A-----------------|--------------9-------------|
E-----------------|----------------------------|

e-----------|-----10--12--10--12/14-14-|
B-----------|-7/10--10--10--10--10-----|
G-9-7-----7-|--------------------------|
D----9-7-7--|--------------------------|
A-------9---|--------------------------|
E-----------|--------------------------|

e-12/14-12-10-12-10-------|-15/17-15/17-15/17-15/17--|
B------------------10-----|--------------------------|
G-------------------------|--------------------------|
D-------------------------|--------------------------|
A---------------------10-9|--------------------------|
E-------------------------|--------------------------|

e-15-14-12----12-15-14------12-15-14------12-|
B-----------15--------15--15--------15--15---|
G---------14------------14------------14-----|
D--------------------------------------------|
A--------------------------------------------|
E--------------------------------------------|

SOLO DE BASS

PUENTE/////
Bm         A           G
explendido hermoso glorioso
A
majestad sin igual

CORO//
CORO/// (SOLO EL TECLADO)

(CANTO ESPONTANEO)


bueno pues es todo espero y lo saken a y yeba mas
rekintos entre el coro y entre los versos pero ya es
muy tarde luego se los anoto ok ay los beran en las tablaturas

pues para dudas mi correo rocker_fly@
dtb bye   
https://primanota.ru/conquistando-fronteras/en-tu-presencia-chords.htm

Привет, гитарист!

Тебе подарок от сайта PrimaNota.ru

Забрать подарок
ВАМ ПОДАРКИ ОТ ПРОЕКТА
"ГИТАРНАЯ РЕВОЛЮЦИЯ"