Войти:  Facebook Google Twitter Vk Yandex Mail.ru
PrimaNota.ru - самый крупный в мире бесплатный архив песенных текстов, аккордов, табулатур и нот


Comeback Kid - All In A Year - текст песни, бас-таба, видео

Печатать
Просмотров: 348
Лучшая metal-группа Петербурга

All In A Year

  • аккорды и текст

 ~ let ring
 X muted note

G------------------|
D------------------|
A-4~---44---0~---2-|
D--------------2---|

4X
G-----------------------------------------|
D-----------------------------------------|
A-44-X-XX-X-44-2-44-2-00-0-00-0------22-2-|
D-------------------------------22-2------|

G-----------------|
D-----------------|
A---------00-0-00-|
D-66-6-66---------|

2X
G------------------------------------------------------------------------>
D------------------------------------------------------------------------>
A------------------------------------------00-0-00-0-00-0-00-0----------->
D-00-0-00-0-00-0-00-0-66-6-66-6-66-6-66-6----------------------22-2-22-2->

  <-1st end-> <2nd>
>I-----------I-----|I
>I-----------I-----|I
>I-22-2-22-2-I-2---|-I
>I-----------I-----|I

G-------------|
D-------------|
A-4~----4~----|
D----0~----0~-|

4X
G----------------------|
D----------------------|
A-----------------5424-|
D-0000-0000-0000-0-----|

8X
G----------------------------|
D----------------------------|
A-----------------------5424-|
D-0-0000-000-00-0-0000-0-----|

3X
G----------------------|
D----------------------|
A-----------------5424-|
D-0000-0000-0000-0-----|

G-----------------------|
D-----------------------|
A-----------------5424~-|
D-0000-0000-0000-0------|

i guess thats it.. correct me if you find mistakes..
  xxSID
Добавлено: 29.05.2012
Другие материалы по этой песне:
  • Аккорды и текст

Страница создана 19.04.2012
https://primanota.ru/comeback-kid/all-in-a-year-chords.htm

Привет, гитарист!

Тебе подарок от сайта PrimaNota.ru

Забрать подарок
ВАМ ПОДАРКИ ОТ ПРОЕКТА
"ГИТАРНАЯ РЕВОЛЮЦИЯ"