» 
 » 
Fix You (ver 3) Live



Coldplay - Fix You (ver 3) Live - табы

Чайковский в рок-аранжировке! Очень необычно, послушай!
[Chorus]

eb|---------------------------------------------------------------------------|
Bb|---------5-----------------5---------5---------7-----------------7---------|
Gb|--4h--6-------------4h--6-----4h--6-----6h--8-------------6h--8------------|
Db|---------------------------------------------------------------------------|
Ab|---------------------------------------------------------------------------|
Eb|---------------------------------------------------------------------------|

eb|---------------------------------------------------------------------------|
Bb|---------5-----------------5---------5---------7-----------------7---------|
Gb|--4h--6-------------4--6-----4h--6-----6h--8-------------6h--8-------------|
Db|---------------------------------------------------------------------------|
Ab|---------------------------------------------------------------------------|
Eb|---------------------------------------------------------------------------|

eb|---------------------------------------------------------------------------|
Bb|---------5-----------------5---------5---------7-----------------7---------|
Gb|--4h--6-------------4h--6-----4h--6-----6h--8-------------6h--8------------|
Db|---------------------------------------------------------------------------|
Ab|---------------------------------------------------------------------------|
Eb|---------------------------------------------------------------------------|

eb|------------12-------------11-------------12-------------11----------------|
Bb|-------9--------------9--------------9--------------9----------------------|
Gb|--9------------------------------------------------------------------------|
Db|---------------------------------------------------------------------------|
Ab|---------------------------------------------------------------------------|
Eb|---------------------------------------------------------------------------|

eb|------------12-------------11-------------12-------------11----------------|
Bb|-------9--------------9--------------9-------------------------------------|
Gb|--9-------------------------------------------------11---------------------|
Db|---------------------------------------------------------------------------|
Ab|---------------------------------------------------------------------------|
Eb|---------------------------------------------------------------------------|

eb|---------------------------------------------------------------------------|
Bb|---------------------------------------------------------------------------|
Gb|--9~-----------------------------------------------------------------------|
Db|---------------------------------------------------------------------------|
Ab|---------------------------------------------------------------------------|
Eb|---------------------------------------------------------------------------|

[Chorus]

eb|---------------------------------------------------------------------------|
Bb|---------5-----------------5---------5---------7-----------------7---------|
Gb|--4h--6-------------4h--6-----4h--6-----6h--8-------------6h--8------------|
Db|---------------------------------------------------------------------------|
Ab|---------------------------------------------------------------------------|
Eb|---------------------------------------------------------------------------|

eb|---------------------------------------------------------------------------|
Bb|---------5-----------------5---------5---------7-----------------7---------|
Gb|--4h--6-------------4--6-----4h--6-----6h--8-------------6h--8-------------|
Db|---------------------------------------------------------------------------|
Ab|---------------------------------------------------------------------------|
Eb|---------------------------------------------------------------------------|

eb|---------------------------------------------------------------------------|
Bb|---------5-----------------5---------5---------7-----------------7---------|
Gb|--4h--6-------------4h--6-----4h--6-----6h--8-------------6h--8------------|
Db|---------------------------------------------------------------------------|
Ab|---------------------------------------------------------------------------|
Eb|---------------------------------------------------------------------------|

[Solo]

eb|--0--0--0--0--0--0--0--0--0--0---0---0---0---0---0---0--|
Bb|--5--5--5--5--5--5--5--5--5/12--12--12--12--12--12--12/-|
Gb|--------------------------------------------------------|   x3
Db|--------------------------------------------------------|
Ab|--------------------------------------------------------|
Eb|--------------------------------------------------------|

eb|--0--0--0-0--0--0--0--0--0--0--0--0--0--0--0--0--|
Bb|--5--5--5/4--4--4--4--4--4--4--4--4--4--4--4--4/-|
Gb|-------------------------------------------------|
Db|-------------------------------------------------|
Ab|-------------------------------------------------|
Eb|-------------------------------------------------|

eb|-------------------------------------------------|
Bb|--5~---------------------------------------------|
Gb|-------------------------------------------------|
Db|-------------------------------------------------|
Ab|-------------------------------------------------|
Eb|-------------------------------------------------|


************************************

| x   Dead note
| g   Grace note
| (n) Ghost note
| h   Hammer-on
| p   Pull-off
| r   Release
| >   Accented note
| t   Tapping
| b   Bend
| br  Bend release
| pb  Pre-bend
| pbr Pre-bend release
| /   Slide up
| \   Slide down
| ~   Vibrato
| s   Slap
| P   Pop
| PM  Palm mute
| TR  Trill
| N   Tremolo

************************************   

Coldplay - Fix You (ver 3) Live - ноты

(включить)
Другие композиции этого автора:
Другие материалы по этой песне:
  • Аккорды, текст

https://primanota.ru/coldplay/fix-you-ver-3-live-chords.htm

Привет, гитарист!

Тебе подарок от сайта PrimaNota.ru

Забрать подарок
ВАМ ПОДАРКИ ОТ ПРОЕКТА
"ГИТАРНАЯ РЕВОЛЮЦИЯ"