Войти:  Facebook Google Twitter Vk Yandex Mail.ru
PrimaNota.ru - самый крупный в мире бесплатный архив песенных текстов, аккордов, табулатур и нот


Cold Chisel - Merry Go Round - текст песни, табы

Печатать
Лучшая metal-группа Петербурга

Merry Go Round

  • аккорды, текст

there is a riff played by a piano for the whole song it is:


Riff1:  (There is more muting between strums as the song develops, just listen to it)
----------------|
----------------|
---9-9---x--7-7-|
---9-9---x--7-7-|
---7-7---x--5-5-|
----------------|
Riff2
----------------|
----------------|
----------------|
--7-7----hold---|
--7-7-----------|
--5-5-----------|
Riff3
----------------|
----------------|
----------------|
-7-7--------5-5-|
-7-7--------5-5-|
-5-5--------3-3-|   
https://primanota.ru/cold-chisel/merry-go-round-chords.htm

Привет, гитарист!

Тебе подарок от сайта PrimaNota.ru

Забрать подарок
ВАМ ПОДАРКИ ОТ ПРОЕКТА
"ГИТАРНАЯ РЕВОЛЮЦИЯ"