» 
 » 
Happens To The Heart



Cohen, Leonard - Happens To The Heart - аккорды

Чайковский в рок-аранжировке! Очень необычно, послушай!
Тональность: 
0
Масштаб: 
100%
Прокрутка: 
0
Проще!
Аппликатуры
Нотный режим
Happens To The Heart
Cohen, Leonard
[ Предположительная тональность: F# ]

Chord Voicings:

Fm   - XX0231
C#   - X13331
C#/F - 3X333x
B7   - X02020


         Fm                               C#
e|------------------------------------|---------------------------------|
B|------------3-------3-------3-------|---------3-------3-------3-------|
G|------------2-------2-------2-------|---2h3---3-------3-------3-------|
D|--------0-------0-------0-------0---|---------------------------------|
A|--0h3-------------------------------|---1---------1-------1-------0---|
E|------------------------------------|---------------------------------|

     C#/F                             B7
e|--------------------------------|----------------------------------------|-------|
B|-------3--------3-------3-------|-------2-------2------------------------|-------|
G|-------3--------3-------3-------|-------0-------0----2---0h2p0-----------|-------|
D|--------------------------------|-------2-------2----------------3---2---|---0---|
A|--------------------------------|---0-------0----------------------------|-------|
E|---3--------3-------3-------3---|----------------------------------------|-------|


[Verse 1]
       Fm
I was always working steady
       C#
But I never called it art
 C#/F
I got my shit together
          B7
Meeting Christ and reading Marx
     Fm
It failed my little fire
          C#
But it's bright, the dying spark
   C#/F
Go tell the young messiah
 B7
What happens to the heart

[Interlude]

||: Fm  |  C#  |  C#/F  |  B7  ||


[Verse 2]
          Fm
There's a mist of summer kisses
         C#
Where I tried to double-park
     C#/F
The rivalry was vicious
     B7
The women were in charge
         Fm
It was nothing, it was business
        C#
But it left an ugly mark
     C#/F
I've come here to revisit
 B7
What happens to the heart

[Interlude]

||: Fm  |  C#  |  C#/F  |  B7  ||

[Verse 3]
        Fm
I was selling holy trinkets
        C#
I was dressing kind of sharp
       C#/F
Had a pussy in the kitchen
        B7
And a panther in the yard
         Fm
In the prison of the gifted
        C#
I was friendly with the guards
      C#/F
So I never had to witness
B7                   C#
What happens to the heart

[Interlude]

||: C#/F  |  G  |  B7  ||

[Verse 4]
   Fm
I should have seen it coming
      C#
After all I knew the chart
        C#/F
Just to look at her was trouble
         B7
It was trouble from the start
         Fm
Sure we played a stunning couple
       C#
But I never liked the part
          C#/F
It ain't pretty, it ain't subtle
 B7
What happens to the heart

[Interlude]

||: Fm  |  C#  |  C#/F  |  B7  ||

[Verse 5]
         Fm
Now the angel's got a fiddle
     C#
The devil's got a harp
      C#/F
Every soul is like a minnow
       B7
Every mind is like a shark
      Fm
I've broken every window
         C#
But the house, the house is dark
  C#/F
I care but very little
 B7
What happens to the heart


[Interlude]

||: Fm  |  C#  |  C#/F  |  B7  ||

[Verse 6]
         Fm
Then I studied with this beggar
        C#
He was filthy, he was scarred
        C#/F
By the claws of many women
         B7
He had failed to disregard
    Fm
No fable here no lesson
     C#
No singing meadowlark
        C#/F
Just a filthy beggar guessing
 B7                  C#
What happens to the heart


[Interlude]

||: C#/F  |  G  |  B7  ||


[Verse 7]
       Fm
I was always working steady
       C#
But I never called it art
        C#/F
It was just some old convention
          B7
Like the horse before the cart
  Fm
I had no trouble betting
        C#
On the flood, against the ark
           C#/F
You see, I knew about the ending
 B7          Fm
What happens to the heart


[Interlude]

||: Fm  |  C#  |  C#/F  |  B7  :||



       Fm
I was handy with a rifle
     C#
My father's .303
   C#/F
I fought for something final
         B7
Not the right to disagree

Cohen, Leonard - Happens To The Heart - ноты

(включить)
Другие материалы по этой песне:
  • Аккорды, текст

https://primanota.ru/cohen-leonard/happens-to-heart-chords.htm

Привет, гитарист!

Тебе подарок от сайта PrimaNota.ru

Забрать подарок
ВАМ ПОДАРКИ ОТ ПРОЕКТА
"ГИТАРНАЯ РЕВОЛЮЦИЯ"