Войти:  Facebook Google Twitter Vk Yandex Mail.ru
PrimaNota.ru - самый крупный в мире бесплатный архив песенных текстов, аккордов, табулатур и нот


Cloud Control - Ghost Story - табы

Печатать
ViraMusic 2019 в Петербурге 4 апреля 2019! Скидка 10%!

Ghost Story

  • аккорды, текст

Авторы: Cloud Control

Cloud Control - Ghost Story

note: It seems to me that both an A and an Am can be played in the chorus, not sure how they play it though. 
      If you have thoughts on this, please share them.


INTRO

e|---------------------------------|
B|---------------------------------|
G|---------------------------------|
D|---7---7---7---7---5---5---4---4-| x4 (This is the main riff in the song)
A|-0---0---0---0---0---0---0---0---|
E|---------------------------------|


VERSE 1 (play the main riff after each sentence)
Am
 And as I walked her down to the water
Am
 It started out cold then it got hotter
Am
 And as I dragged her down to the river

 I never thought I'd lie to my sister


CHORUS (continue playing the main riff)
We are the protectors
We are the soul collectors
We follow solar vectors


VERSE 2 (play the main riff after each sentence)

I felt the hair on the back of my neck stand up
      I watched the time tick by but never stop
e|---------|
B|-10------|
G|---------|
D|---------|
A|---------|
E|---------| 


CHORUS (continue playing the main riff)
Am
 We are the protectors         \
           D                    \
We are the soul collectors       x2
A                         D     /
 We follow solar vectors       /

e|-----------------|
B|-----------------|
G|---2---2---2---2-|
D|-0---0---0---0---| x2
E|-----------------|


BRIDGE

   A          G    D              A          G     D 

e|-9----------7----10-------------9----------7-----2--------------|
B|-10---------8----10-------------10---------8-----3--------------|
G|-9----------7----11-------------9----------7-----2--------------|
D|----------------------------------------------------------------| x2
A|----------------------------------------------------------------|
E|----------------------------------------------------------------|


VERSE 3
Am                      D                     A  D
 I felt the hair on the back of my neck stand up
Am                       D            A    D
 I watched the time tick by but never stop


CHORUS (continue playing the main riff)

Am
 We are the protectors         \
D                               \
 We are the soul collectors      x2
A                        D      /
 We follow solar vectors       /


OUTRO

   A          G    D              A          G     D 

e|-9----------7----10-------------9----------7-----2--------------|
B|-10---------8----10-------------10---------8-----3--------------|
G|-9----------7----11-------------9----------7-----2--------------|
D|----------------------------------------------------------------| x2
A|----------------------------------------------------------------|
E|----------------------------------------------------------------|


A   D   x4

end on A










   
Другие материалы по этой песне:
  • Аккорды, текст

https://primanota.ru/cloud-control/ghost-story-chords.htm

Привет, гитарист!

Тебе подарок от сайта PrimaNota.ru

Забрать подарок
ВАМ ПОДАРКИ ОТ ПРОЕКТА
"ГИТАРНАЯ РЕВОЛЮЦИЯ"