Войти:  Facebook Google Twitter Vk Yandex Mail.ru
PrimaNota.ru - самый крупный в мире бесплатный архив песенных текстов, аккордов, табулатур и нот


Clint Mansell - Requiem For A Dream - текст песни, табы

Печатать
ViraMusic 2019 в Петербурге 4 апреля 2019! Скидка 10%!

Requiem For A Dream

  • аккорды, текст
  • gtp-табы

1---0----0-------------------------0-------0--------------------------
2-----------------1-------0--------------------------1-------0--------
3---------------------------------------------------------------------
4---2------------------------------2----------------------------------
5-----------------3---3---2---2----------------------3---3---2---2---
6---0-0--0--0----------------------0---0---0--0----------------------



1-3--2--0-------3--2--0--------3--2--0----------5---3---2---3-|
2-----------0-------------0--------------0--------------------|
3-------------------------------------------------------------| 2 раза.
4-------------------------------------------------------------|
5------------------------------3---------3------2-------2-----|
6-0-----0-------0---------0-----------------------------------|



1-0--0-----0--0-----2--2-----3--3----0---0----0---0----------------------|
2-0--0-----0--0-----1--1-----0--0----0---0----0---0------3----3----1---1-|
3--------------------------------------------------------0----0----0---0-| 2 раза.
4-2--------2-------------------------2---------2-------------------------|
5-------------------3--------2---------------------------3---------2-----|
6-0--------0-------------------------0---------0-------------------------|


1-3---0------3--0---3---0-----3--0--3--0-------3--0--3--0--3--0----3--0--3--0-|
2-0-----------------0---------------1----------------0-------------------0----|
3-----------------------------------0-----------------------------------------|
4-2-----------------2---------------------------------------------------------|
5-----------------------------------3------3---------2-------------------2----|
6-0-------0---------0------0--------------------------------------------------|
                                                                                                                                                      |
                                                                                                                                                      | 2 раза 
                                                                                                                                                      |
1-3--2--------3---2---3---2------3--2--3--2------3--2--3--2--3--2---3--2--3--2|
2-0-------------------0----------------1---------------0------------0---------|
3--------------------------------------0--------------------------------------|
4-2-------------------2-------------------------------------------------------|
5--------------------------------------3------3--------2------------2---------|
6-0-------0-----------0-------0-----------------------------------------------|



1-3-2-2-2--0--3--3--3--2--2--2--0--3-3--3--2--2--2--0--0--0--0--2--2--2--2--3--3--3-|
2-0--------0--------0-----------0-------1-----------1--------0-----------0----------|
3---------------------------------------0-----------0-------------------------------|х2
4-2--------2--------2-----------2---------------------------------------------------|
5---------------------------------------3-----------3--------2-----------2----------|
6-0--------0--------0-----------0---------------------------------------------------|



1-0--0--0--0----2--2----3--3---0---0---0---0---------------------|
2-0--0--0--0----1--1----0--0---0---0---0---0-----3--3---1---1----|
3---------------0--0-----------------------------0--0---0---0----|
4-2--2--2--2-------------------2---2---2---2---------------------|
5---------------3-------2------------------------3------2--------|
6-0-----0----------------------0-------0-------------------------|



1-0---0---0---0-----2---2----3---3---0---0---0---0---------------|
2-0---0---0---0-----1---1----0---0---0---0---0---0----3--3--1--1-|
3-------------------0---0-----------------------------0--0--0--0-|
4-2---2---2---2----------------------2---2---2---2---------------|
5-------------------3--------2------------------------3-----2----|
6-0-------0--------------------------0-------0-------------------|
Другие композиции этого автора:
Другие материалы по этой песне:

https://primanota.ru/clint-mansell/requiem-for-a-dream-chords.htm

Привет, гитарист!

Тебе подарок от сайта PrimaNota.ru

Забрать подарок
ВАМ ПОДАРКИ ОТ ПРОЕКТА
"ГИТАРНАЯ РЕВОЛЮЦИЯ"