Войти:  Facebook Google Twitter Vk Yandex Mail.ru
PrimaNota.ru - самый крупный в мире бесплатный архив песенных текстов, аккордов, табулатур и нот


Chronic Future - Eyes Wide Open - текст песни, табы

Печатать
Лучшая metal-группа Петербурга

Eyes Wide Open

  • аккорды, текст

GET THIS CD AT ALL COSTS!
Eyes Wide Open
off of Lines In My Face

Tabbed by the Jackal

Tuned Drop D down half step

Intro/Pre-Chorus
eb|-----------------------------------------------------------------------------|
Bb|-----------------------------------------------------------------------------|
Gb|-------4-6--------9-6--------x6-------999-6----------------------------------|
Db|-4444--4-6--2222--9-6--0000--x6--0000-999-6----------------------------------|
Ab|-4444--2-4--2222--7-4--0000--x4--0000-777-4----------------------------------|
Db|-4444-------2222-------0000------0000----------------------------------------|

eb|----------------------------------------------|
Bb|----------------------------------------------|
Gb|-------4-6--------9-6--------x6-------9-9-----|
Db|-4444--4-6--2222--9-6--0000--x6--0000-9-9-----|
Ab|-4444--2-4--2222--7-4--0000--x4--0000-7-7-----|
Db|-4444-------2222-------0000------0000---------|

Verse (Clean)
eb|-----------------------------------------------------------------------------|
Bb|-----------------------------------------------------------------------------|
Gb|-----------------------------------------------------------------------------|
Db|--------7---7------444-0------222--------------------------------------------|
Ab|-77777-7-7-7-4444-------2222-----4-00000-0-2-4-------------------------------|
Db|-77777---7---4444-------2222-------00000-------------------------------------|
  PM(. . . . .      .       . . . .              . . . .              . . . . . )

Lead on 2nd and 3rd Verse (Play Twice)
eb|-----------------------------55555555----------------------------|
Bb|-5555555-7---------7---------------------------------------------|
Gb|-----------6666666---44444444------------------------------------|
Db|-----------------------------------------------------------------|
Ab|-----------------------------------------------------------------|
Db|-----------------------------------------------------------------|

Chorus/Bridge (play twice)
eb|---------------------------------|---Play this at the end----|
Bb|---------------------------------|---------------------------|
Gb|---------------------------------|---------------------------|
Db|-44444444444444440000000000000000--|-2-4---------------------|
Ab|-44444444444444440000000000000000--|-2-4---------------------|
Db|-44444444444444440000000000000000--|-2-4---------------------|

Put the pieces together and you've got your self a whole song. Have Fun!
"And on the eigth day God created rock"   
https://primanota.ru/chronic-future/eyes-wide-open-chords.htm

Привет, гитарист!

Тебе подарок от сайта PrimaNota.ru

Забрать подарок
ВАМ ПОДАРКИ ОТ ПРОЕКТА
"ГИТАРНАЯ РЕВОЛЮЦИЯ"