Войти:  Facebook Google Twitter Vk Yandex Mail.ru
PrimaNota.ru - самый крупный в мире бесплатный архив песенных текстов, аккордов, табулатур и нот


Chris Tomlin - On Our Side - текст песни, табы

Печатать
ViraMusic 2019 в Петербурге 4 апреля 2019! Скидка 10%!

On Our Side

  • аккорды, текст

----------------------------------------------------------------------------
                             On Our Side - Chris Tomlin
----------------------------------------------------------------------------
Tabbed by:Johnston Tang

Capo 1

e|-----------------------------------------------------------------------|
B|-----------------------------------------------------------------------|
G|-----------------------------------------------------------------------|
D|-----0-0---------------------------------------------------------------|
A|---------4--2/4-4-4-4-4------------------------------------------------|
E|-0-0-------------------------------------------------------------------|

Chorus:
e|-------------------------------------------------------------------------|
B|---10---9---9------------------------------------------------------------|
G|----9---8---7------------------------------------------------------------|
D|-------------------------------------------------------------------------|
A|-------------------------------------------------------------------------|
E|-------------------------------------------------------------------------|


e|-------------------------------------------------------------------|
B|-------------8-----------------------------------------------------|
G|----5-7-7b8----7-5----7-5---------------5--------------------------|
D|--7----------------7------7-5-7----5--7---7------------------------|
A|-------------------------------------------------------------------|
E|-------------------------------------------------------------------|

e|----5--5-----------------------------------------------------------|
B|---------8---8b10--------------------------------------------------|
G|-----------9-------7-5-7--7-5-------------5-7----------------------|
D|------------------------------7--5-7----7-----7--------------------|
A|-------------------------------------------------------------------|
E|-------------------------------------------------------------------|

e|-----------------------------------------17-----17-----17-----17-----17|
B|-8888-8888-TTTT-TTTT-RRRR-RRRR-R-R--16-17--16-17--16-17--16-17--16-17--|
G|-9999-9999-EEEE-EEEE-FFFF-FFFF--F-F------------------------------------|
D|-----------------------------------------------------------------------|
A|-----------------------------------------------------------------------|
E|-----------------------------------------------------------------------|
  T=10; E=11; R=13; F=14

e|----------------------------------------------------------|
B|-10----8-----6---3---2------------------------------------|
G|-12b13-10b11-8b9-5b6-4b5----------------------------------|
D|----------------------------------------------------------|
A|----------------------------------------------------------|
E|----------------------------------------------------------|   
https://primanota.ru/chris-tomlin/on-our-side-chords.htm

Привет, гитарист!

Тебе подарок от сайта PrimaNota.ru

Забрать подарок
ВАМ ПОДАРКИ ОТ ПРОЕКТА
"ГИТАРНАЯ РЕВОЛЮЦИЯ"