Войти:  Facebook Google Twitter Vk Yandex Mail.ru
PrimaNota.ru - самый крупный в мире бесплатный архив песенных текстов, аккордов, табулатур и нот


Chris Brown - Make Love -

  • аккорды, текст

-------------------------------------------------------------------------------------------------
                                   MAKE LOVE - CHRIS BROWN
-------------------------------------------------------------------------------------------------
Tabbed By: ralphyuson
Tuning: Standard


[Verse]
G|---------------------------------------------------------------------------|
D|-----3h5------------------3h5-------2h3------------------------------------| x5
A|---------------------------------------------------------------------------|
E|--0-------0-0---2--3--5--------5-5-----------------------------------------|

I wanna make love, yeah
I wanna make love to you baby, that's all I wanna do, oh girl
I can't get enough, ooh yeah, hey
I'm loving you baby, that's all I wanna do

[Chorus]
G|---------------------------------------------------------------------------|
D|-----3h5------------------3h5-------2h3------------------------------------| x5
A|---------------------------------------------------------------------------|
E|--0-------0-0---2--3--5--------5-5-----------------------------------------|

Girl I wanna love you, baby
Oh I wanna make love to you, yeah
I said baby, baby, baby, woah
I wanna make love to you, yeah yeah yeah


[2nd Verse]
G|---------------------------------------------------------------------------|
D|---------------------------------------------------------------------------|
A|----------------------------7p5--------------------------------------------|
E|--0h2--3--5h7---------------------7p5---3p0--------------------------------|

Woah-ho-wo wo-ho-wo...       Yeah... 

G|---------------------------------------------------------------------------|
D|-----3h5------------------3h5-------2h3------------------------------------| x5
A|---------------------------------------------------------------------------|
E|--0-------0-0---2--3--5--------5-5-----------------------------------------|

...girl you look so good
You're all I can think about, the only one I can't be without, yeah
Everything you do, woah, oh no
Girl I swear I have no doubt, I'm gon' make you scream and shout

[Chorus]
G|---------------------------------------------------------------------------|
D|-----3h5------------------3h5-------2h3------------------------------------| x5
A|---------------------------------------------------------------------------|
E|--0-------0-0---2--3--5--------5-5-----------------------------------------|

Girl I wanna love you, baby
Yeah I wanna make love to you, yeah
I said baby, baby, baby, yeah
I wanna make love to you, yeah yeah yeah

[Bridge]
G|---------------------------------------------------------------------------|
D|---------------------------------------------------------------------------| x5
A|----------------------------7p5--------------------------------------------|
E|--0h2--3--5h7---------------------7p5---3p0--------------------------------|

Baby girl, give me some, give me some loving, oh yeah
I love the look on your face when I'm deep in love
All I need in my life, girl is your loving, yeah
Girl give me some, give me some loving, oh

[Outro]
G|---------------------------------------------------------------------------|
D|-----3h5------------------3h5-------2h3------------------------------------| x8
A|---------------------------------------------------------------------------|
E|--0-------0-0---2--3--5--------5-5-----------------------------------------|

Girl I wanna love you, baby
I wanna make love to you, yeah
I said baby, baby, baby
I wanna make love to you, yeah yeah yeah

Girl I now wanna make love to you
Yeah, yeah, yeah
Girl I now wanna make love to you
Wanna make love to you 

---END---


************************************

| h  Hammer-on
| p  Pull-off

************************************   
https://primanota.ru/chris-brown/make-love-chords.htm

Привет, гитарист!

Тебе подарок от сайта PrimaNota.ru

Забрать подарок
ВАМ ПОДАРКИ ОТ ПРОЕКТА
"ГИТАРНАЯ РЕВОЛЮЦИЯ"