» 
 » 
Make Love



Chris Brown - Make Love - бас-таба

Бесплатный вокальный онлайн-квест VOX7
  • аккорды, текст
Song: Make Love
Artist: Chris Brown
Album: Royalty

This song is comprised of two main riffs, a VERSE and a BREAK. It has no chorus.
It was written on a 5-string bass, but a determined player can tune to Drop C# to reach the low BREAK notes
or harmonize with these notes on the E-string of a 4-string bass as they see fit.

[Intro]
0:00
 | 1 + 2 + 3 + 4 + | 1 + 2 + 3 + 4 + | 1 + 2 + 3 + 4 + | 1 + 2 + 3 + 4 + |
G|-----------------|-----------------|-----------------|-----------------|
D|---------4h6-----|-----------------|---------4h6-----|---------2h4-----|
A|-----------------|-----------------|-----------------|-----------------|
E|-0-------------0-|-0-------2---4---|-5-------------5-|-5---------------|
B|-----------------|-----------------|-----------------|-----------------|(x2)

[Verse 1]
0:15
 | 1 + 2 + 3 + 4 + | 1 + 2 + 3 + 4 + | 1 + 2 + 3 + 4 + | 1 + 2 + 3 + 4 + |
G|-----------------|-----------------|-----------------|-----------------|
D|---------4h6-----|-----------------|---------4h6-----|---------2h4-----|
A|-----------------|-----------------|-----------------|-----------------|
E|-0-------------0-|-0-------2---4---|-5-------------5-|-5---------------|
B|-----------------|-----------------|-----------------|-----------------|(x8)

[Break] 
1:18
 | 1 + 2 + 3 + 4 + | 1 + 2 + 3 + 4 + | 1 + 2 + 3 + 4 + | 1     +     2     +     3     +     4     +     |
G|-----------------|-----------------|-----------------|-------------------------------------------------|
D|-----2-------4h6-|-----------------|-----------------|-14h16-14----------------------------------------|
A|/4---------------|-----------------|-----------------|-------------14h16-14----------------------------|
E|---------0-------|-5---------------|-----------------|-------------------------14h16-14----(12)\-------|
B|-----------------|---------3---2---|-----------------|-------------------------------------------------|

[Verse 2]
1:26
 | 1 + 2 + 3 + 4 + | 1 + 2 + 3 + 4 + | 1 + 2 + 3 + 4 + | 1 + 2 + 3 + 4 + |
G|-----------------|-----------------|-----------------|-----------------|
D|---------4h6-----|-----------------|---------4h6-----|---------2h4-----|
A|-----------------|-----------------|-----------------|-----------------|
E|-0-------------0-|-0-------2---4---|-5-------------5-|-5---------------|
B|-----------------|-----------------|-----------------|-----------------|(x8)

[Break] 
2:29
 | 1 + 2 + 3 + 4 + | 1 + 2 + 3 + 4 + | 1 + 2 + 3 + 4 + | 1     +     2     +     3     +     4     +     |
G|-----------------|-----------------|-----------------|-------------------------------------------------|
D|-----2-------4h6-|-----------------|-----------------|-14h16-14----------------------------------------|
A|/4---------------|-----------------|-----------------|-------------14h16-14----------------------------|
E|---------0-------|-5---------------|-----------------|-------------------------14h16-14----(12)\-------|
B|-----------------|---------3---2---|-----------------|-------------------------------------------------|(x4)

[Outro]
3:00
 | 1 + 2 + 3 + 4 + | 1 + 2 + 3 + 4 + | 1 + 2 + 3 + 4 + | 1 + 2 + 3 + 4 + |
G|-----------------|-----------------|-----------------|-----------------|
D|---------4h6-----|-----------------|---------4h6-----|---------2h4-----|
A|-----------------|-----------------|-----------------|-----------------|
E|-0-------------0-|-0-------2---4---|-5-------------5-|-5---------------|
B|-----------------|-----------------|-----------------|-----------------|(x6)


************************************

| h    hammer-on
| /    slide up (quickly slide into note)
| ()\  ghost slide (without plucking, press the fret in parentheses and slide down)

************************************   

Chris Brown - Make Love - ноты

(включить)
Другие композиции этого автора:
Другие материалы по этой песне:
  • Аккорды, текст

https://primanota.ru/chris-brown/make-love-chords.htm

Привет, гитарист!

Тебе подарок от сайта PrimaNota.ru

Забрать подарок
ВАМ ПОДАРКИ ОТ ПРОЕКТА
"ГИТАРНАЯ РЕВОЛЮЦИЯ"