# 0 1 2 3 4 5 6 7 8 9 A B C D E F G H I J K L M N O P Q R S T U V W X Y Z
А Б В Г Д Е Ж З И І Й К Л М Н О П Р С Т У Ф Х Ц Ч Ш Щ Ы Э Ю Я
Войти:  Facebook Google Twitter Vk Yandex Mail.ru



Chris Brown - Beautiful Girl - аккорды

 » 
 » 
Beautiful Girl
Нотный режим - новая уникальная возможность на нашем сайте!
  • аккорды, текст
Тональность: 
0
Масштаб: 
100%
Прокрутка: 
0
Проще!
Аппликатуры
Нотный режим
Beautiful Girl
Chris Brown
[ Предположительная тональность: Em ]

Tuning: EADGBe / Standard

Intro:
  G       Em       C           D               C
|--------------------------------------------0h2--------2-3-----3-2-0--------------------|
|------3-----3-----3-----3-----3-----3-----3----3--------------------------------------3-|
|--------0-----------0-----------0-------0------------0-------0----------------0-2-4/5---|
|----0-----0-----------0-----------0---0----------0h2-------2------------0-2-4-----------|
|--------------0h2---------0h3-----------------------------------------3-----------------|
|--3-------------------------------------------------------------------------------------|

  G       Em       C           D                C
|--------------------------------------------3p2--------2-3-----3-2-0--------------------|
|------3-----3-----3-----3-----3-----3-----3----3----------------------------------------|
|--------0-----------0-----------0-------0------------0-------0----------4p0-0h2p0-------|
|----0-----0-----------0-----------0---0----------0h2-------2----------------------2p0-5-|
|--------------0h2---------0h3-----------------------------------------3-----------------|
|--3-------------------------------------------------------------------------------------|

Verse 1:
G         Em           C      D
For as long as i've understood a beautiful mess
 Em       D      C
i found myself picturing you
G         Em          C         D
the text book queen for what a sister should be
Em       D     C
god made you perfect, mom and dad had me
G     Em          C       D
nineteen years has made a lot of memories
Em          D       C
a fighting can't left me and crying together
G     Em       C        D
today is one more to place in our hearts
Em        D         C
as one of the most important days of your life

Bridge:
         D           C
i guess it's time to let Go of you
       D           C
i hope you know i look up to you

Chorus
G            D
there's so much in store for you
Em           C
in this brand new world for two
G                  D
we've prayed for each other all of these years
Em              C
god is so faithful and now your here
     Em            C
on this beautiful day for a beautiful girl

Instrumental 1x --> G  Em  C   D  Em  D  C

Verse 2:
now it's time to start your life away from home
with great things to come and memories to make
i wish you all the happiness
that i got surrendered life could be
' cause now you found the one who's perfect only for you
to smile and love just because your you
there you are staring at him a match made in heaven

Bridge:
i guess it's time to let Go of you
i hope you know i look up to you

Chorus:
there's so much in store for you
in this brand new world for two
we prayed for each other all of these years
god is so faithful and now your here
on this beautiful day for a beautiful girl

Verse 3:
    G         C           Em
    when you stumble when you fall
           D                G
    now you've got someone to share it all
               C                  Em
    and trouble the heart to pull whatever may come
              D              Em   C
    for better or worst you'll face it all in love.
    D
    Hmmm..

Chorus:
there's so much in store for you
in this brand new world for two
we've prayed for each other all of these years
god is so faithful and now your here
     Em           C
on this beautiful day
     Em           C
on this beautiful day
     Em           C
on this beautiful day
            G
for a beautiful girl

Intro 1x

Chris Brown - Beautiful Girl - ноты

(включить)
Другие материалы по этой песне:
  • Аккорды, текст

https://primanota.ru/chris-brown/beautiful-girl-chords.htm

Привет, гитарист!

Тебе подарок от сайта PrimaNota.ru

Забрать подарок
ВАМ ПОДАРКИ ОТ ПРОЕКТА
"ГИТАРНАЯ РЕВОЛЮЦИЯ"