Войти:  Facebook Google Twitter Vk Yandex Mail.ru
PrimaNota.ru - самый крупный в мире бесплатный архив песенных текстов, аккордов, табулатур и нот


Charlie Parker - Crazeology - табы

Печатать
Поддержи лучшую metal-группу Петербурга!

Crazeology

  • аккорды, текст

Авторы музыки: Benny Harris

[A]
  
  Bb6         Gm7          Cm7         F7           Dm7         Gm7          Cm7         F7
e|------------------------|------------------------|------------------------|------------------------|
B|------------------------|------------------------|------------------------|------------------------|
G|7--5--------5-----------|---------------------5--|------------------------|------------------------|
D|------8--7-----8--------|7--5--------------7-----|------8-----7--5--------|------------------------|
A|------------------------|------8--6--5--8--------|---------5-----------8--|------6-----5--3--------|
E|------------------------|------------------------|------------------------|---------3--------------|
  1  +  2  +  3  +  4  +   1  +  2  +  3  +  4  +   1  +  2  +  3  +  4  +   1  +  2  +  3  +  4  +  

  Abm7         Db7         Gbmaj7                   F7                       Bb6
e|------------------------|------------------------|------------------------|------------------------|
B|------------------------|------------------------|------------------------|------------------------|
G|---6--4-----3-----------|------------------------|------2--4--------2--3--|------------------------|
D|---------------6----6---|------4--2--3--1--------|---3--------------------|------------------------|
A|---------6--------------|---------------------4--|5-----------------------|------------------------|
E|------------------------|------------------------|------------------------|------------------------|
  1  +  2  +  3  +  4  +   1  +  2  +  3  +  4  +   1  +  2  +  3  +  4  +   1  +  2  +  3  +  4  +  

[B]

  D7                                                Dm7                      G7
e|------------------------|------------------------|------------------------|---------3--------------|
B|------------------------|------------------------|---------3--2-----------|------------------------|
G|------------------------|---------7--------------|------2--------2--------|5--2--4-----------------|
D|------4-5-6-7--5--4-----|---4--7-----------------|---3--------------3-----|------------------------|
A|---------------------7--|5-----------------------|---------------------5--|------------------------|
E|------------------------|------------------------|------------------------|------------------------|
  1  +  2 e a 3  +  4  +   1  +  2  +  3  +  4  +   1  +  2  +  3  +  4  +   1  +  2  +  3  +  4  +
  
  C7                                                Cm7                      F7
e|------------------------|------------------------|------------------------|---------1--------------|
B|------------------------|------------------------|---------1--0-----------|------------------------|
G|------------------------|---------5--------------|------0--------0--------|3--0--2-----------------|
D|------2-3-4-5--3--2-----|---2--5-----------------|---1--------------1-----|------------------------|
A|---------------------5--|3-----------------------|---------------------3--|------------------------|
E|------------------------|------------------------|------------------------|------------------------|
  1  +  2 e a 3  +  4  +   1  +  2  +  3  +  4  +   1  +  2  +  3  +  4  +   1  +  2  +  3  +  4  +

*************************************************************************
"Crazeology" Written By Bennie Harris
Tuning: Standard (No Capo)
Time: 4/4 Swing
Beats counted "1-e-a-" represent eighth note triplets
Beats counted "1--+--" represent swung eighth notes

Form:

Opening Head: Play tab as written for [A][A][B][A] (x1)
Solo Section: Improvise over chords for [A][A][B][A] (repeat as desired)
Closing Head: Play tab as written for [A][A][B][A] (x1)

End
*************************************************************************   
https://primanota.ru/charlie-parker/crazeology-chords.htm

Привет, гитарист!

Тебе подарок от сайта PrimaNota.ru

Забрать подарок
ВАМ ПОДАРКИ ОТ ПРОЕКТА
"ГИТАРНАЯ РЕВОЛЮЦИЯ"