Войти:  Facebook Google Twitter Vk Yandex Mail.ru
PrimaNota.ru - самый крупный в мире бесплатный архив песенных текстов, аккордов, табулатур и нот


Charlie Parker - Cool Blues - табы

Печатать
Поддержи лучшую metal-группу Петербурга!

Cool Blues

  • аккорды, текст

Авторы музыки: Charlie Parker

[Head]

  C
e|------------------------|------------------------|------------------------|------------------------|
B|------------------------|------------------------|------------------------|------------------------|
G|--2------------5--4--2--|------------------------|------------------------|------------------------|
D|5---5-2--3--5-----------|5--3--------2-----5-----|------------------------|------------------------|
A|------------------------|------5--------------5--|---3--5-----------------|------------------------|
E|------------------------|---------5--------------|------------------------|------------------------|
  1 e a 2  +  3  +  4  +   1  +  2  +  3  +  4  +   1  +  2  +  3  +  4  +   1  +  2  +  3  +  4  +  

  F7                                                C
e|------------------------|------------------------|------------------------|------------------------|
B|---------------1--------|------------------------|------------------------|------------------------|
G|0-2-0-------0-----4--2--|0-----------------0-----|------------------------|------------------------|
D|------1--3--------------|---3--0-----2--------0--|------0-----------------|------------------------|
A|------------------------|---------0--------------|---3--------------------|------------------------|
E|------------------------|------------------------|------------------------|------------------------|
  1 e a 2  +  3  +  4  +   1  +  2  +  3  +  4  +   1  +  2  +  3  +  4  +   1  +  2  +  3  +  4  +  
  
  Dm7                      G7                       C
e|------------------------|------------------------|------------------------|------------------------|
B|------------------------|------------------------|------------------------|------------------------|
G|--2------------5--4--2--|------------------------|------------------------|------------------------|
D|5---5-2--3--5-----------|5--3--------2-----5-----|------------------------|------------------------|
A|------------------------|------5--------------5--|---3--5-----------------|------------------------|
E|------------------------|---------5--------------|------------------------|------------------------|
  1 e a 2  +  3  +  4  +   1  +  2  +  3  +  4  +   1  +  2  +  3  +  4  +   1  +  2  +  3  +  4  +  


********************************************************
"Cool Blues" Written by Charlie Parker
Tuning: Standard (No Capo)
Time: 4/4 Swing
Beats counted "1-e-a-" represent eighth note triplets
Beats counted "1--+--" represent swung eighth notes

Form:

Opening Head: Play written tab 1 time
Solo Section: Improvise over chords, repeat as desired
Closing Head: Play written tab 1 time

End
********************************************************   
Другие композиции этого автора:
Другие материалы по этой песне:
  • Аккорды, текст

https://primanota.ru/charlie-parker/cool-blues-chords.htm

Привет, гитарист!

Тебе подарок от сайта PrimaNota.ru

Забрать подарок
ВАМ ПОДАРКИ ОТ ПРОЕКТА
"ГИТАРНАЯ РЕВОЛЮЦИЯ"